PrimaNota.ru - самый крупный в мире бесплатный архив песенных текстов, аккордов, табулатур и нот


Mf Doom - Books Of War - таба, видео

Регистрация Запомнить меня
Войти через:  Facebook Google Twitter Vk Yandex Mail.ru

Mf Doom - Books Of War - таба, видео

Печатать
Просмотров: 91
MF DOOM Books of war Guitar Tab

Intro

E---------------------------------|
B-12-12----12--10----12-----------|
G-----------------11----11--------|
D---------------------------------|
A---------------------------------|
E---------------------------------|

Main Riff (x3)

E---------------------------------|
B-12-10-10/12^7-7-7/10-10^7/10-5--|
G---------------------------------|
D---------------------------------|
A---------------------------------|
E---------------------------------|

E---------------------------------|
B----5-7-7^10^7^10-10/14-14^12-12-|
G-4-7-----------------------------|
D---------------------------------|
A---------------------------------|
E---------------------------------|

First change 

E---------------------------------|
B-12-10-10/12-7-7-7/10-10-7/10----|
G---------------------------------|
D---------------------------------|
A---------------------------------|
E---------------------------------|

E---------------------------------|
B----5-7-7^10^7^10-10/14-14^12-12-|
G-4-7-----------------------------|
D---------------------------------|
A---------------------------------|
E---------------------------------|

second change 

E----------------------------------|
B-12-10-10/12^7-7-7/12-12XXXX12-12-|
G----------------------------------|
D----------------------------------|
A----------------------------------|
E----------------------------------|

E---------------------------------|
B----5-7-7^10^7^10-10/14-14^12-12-|
G-4-7-----------------------------|
D---------------------------------|
A---------------------------------|
E---------------------------------|

Main Riff (x1)

E---------------------------------|
B-12-10-10/12^7-7-7/10-10^7/10-5--|
G---------------------------------|
D---------------------------------|
A---------------------------------|
E---------------------------------|

E---------------------------------|
B----5-7-7^10^7^10-10/14-14^12-12-|
G-4-7-----------------------------|
D---------------------------------|
A---------------------------------|
E---------------------------------|

Third change 
E---------------------------------|
B-12-10-10/12^7-7-7/10-10^7/10-5--|
G---------------------------------|
D---------------------------------|
A---------------------------------|
E---------------------------------|

E---------------------------------------|
B----5-7-7^10^7^10-7/10--12-10----12----|
G-4-7--------------------------11----11-|
D---------------------------------------|
A---------------------------------------|
E---------------------------------------|

Main Riff (x2)

E---------------------------------|
B-12-10-10/12^7-7-7/10-10^7/10-5--|
G---------------------------------|
D---------------------------------|
A---------------------------------|
E---------------------------------|

E---------------------------------|
B----5-7-7^10^7^10-10/14-14^12-12-|
G-4-7-----------------------------|
D---------------------------------|
A---------------------------------|
E---------------------------------|

Fourth change 

E---------------------------------|
B-12-10-10/12^7-7-7-14-14-12-12---|
G-------------------11-11-11-11---|
D-------------------12-12-12-12---|
A---------------------------------|
E---------------------------------|

E---------------------------------|
B-------XXXX-12-12-XXXX-14^12-12--|
G-11-11---------------------------|
D---------------------------------|
A---------------------------------|
E---------------------------------|

Main Riff (x3)

E---------------------------------|
B-12-10-10/12^7-7-7/10-10^7/10-5--|
G---------------------------------|
D---------------------------------|
A---------------------------------|
E---------------------------------|

E---------------------------------|
B----5-7-7^10^7^10-10/14-14^12-12-|
G-4-7-----------------------------|
D---------------------------------|
A---------------------------------|
E---------------------------------|

Fifth change 

E---------------------------------|
B-12-10-10/12-7-7-7/10-10-7/10----|
G---------------------------------|
D---------------------------------|
A---------------------------------|
E---------------------------------|

E---------------------------------|
B----5-7-7^10^7^10-10/14-14^12-12-|
G-4-7-----------------------------|
D---------------------------------|
A---------------------------------|
E---------------------------------|

Main Riff (x2)

E---------------------------------|
B-12-10-10/12^7-7-7/10-10^7/10-5--|
G---------------------------------|
D---------------------------------|
A---------------------------------|
E---------------------------------|

E---------------------------------|
B----5-7-7^10^7^10-10/14-14^12-12-|
G-4-7-----------------------------|
D---------------------------------|
A---------------------------------|
E---------------------------------|

Ending 

E----------------------------------------------|
B-12--10----12-----14-14-14-12-12-12-12-12-----|
G--------11----11--11-11-11-11-11-11-11-11--13-|
D------------------12-12-12-12-12-12-12-12--12-|
A-------------------------------------------14-|
E----------------------------------------------|
Добавлено: 14.12.2015
Другие материалы по этой песне:
  • Аккорды и текст

Страница создана 14.12.2015
http://primanota.ru/mf-doom/books-of-war-chords.htm
Привет, Гость.
Предлагаем пройти революционный курс по гитаре.
Подарок от PrimaNota.Ru, забирай!