PrimaNota.ru - самый крупный в мире бесплатный архив песенных текстов, аккордов, табулатур и нот


Mexico City Blondes - Fade - таба, видео

Регистрация Запомнить меня
Войти через:  Facebook Google Twitter Vk Yandex Mail.ru

Mexico City Blondes - Fade - таба, видео

Печатать
Просмотров: 149
-------------------------------------------------------------------------------
                             FADE - Mexico City Blondes
-------------------------------------------------------------------------------

Hey everyone! This is my first tab, so I sincerely hope you enjoy! I know I'm missing a lot of the rest
of the song, so if I figure out any more I'll add it.  Alternatively, if any of you figure more out, feel
free to email me.

Tabbed by: ptme3
E-mail: jared871@gmail.com

Tuning: Standard

e|-------------3--------------2h3p2--------------3------------2h3p2----------|
B|------3------4------3-------------2-----3------4-----3------------2--------|
G|------3----0--------3--0--0-------------3----0-------3--0-0----------------|
D|---------1--------3------------------------1-------3-----------------------|
A|----1-----------5---------------------1----------1-------------------------|
E|--3---------------------------------3--------------------------------------|
   "You've got a good mouth..."            "When you wanna make me care.."   
e|-------------3--------------2h3p2--------------3------------2h3p2----------|
B|------3------4------3-------------2-----3------4-----3------------2--------|
G|------3----0--------3--0--0-------------3----0-------3--0-0----------------|
D|---------1--------3------------------------1-------3-----------------------|
A|----1-----------5---------------------1----------1-------------------------|
E|--3---------------------------------3--------------------------------------|
        " 
e|-------------3--------------2h3p2--------------3------------2h3p2----------|
B|------3------4------3-------------2-----3------4-----3------------2--------|
G|------3----0--------3--0--0-------------3----0-------3--0-0----------------|
D|---------1--------3------------------------1-------3-----------------------|
A|----1-----------5---------------------1----------1-------------------------|
E|--3---------------------------------3--------------------------------------|

e|-------------3--------------2h3p2--------------3------------2h3p2----------|
B|------3------4------3-------------2-----3------4-----3------------2--------|
G|------3----0--------3--0--0-------------3----0-------3--0-0----------------|
D|---------1--------3------------------------1-------3-----------------------|
A|----1-----------5---------------------1----------1-------------------------|
E|--3---------------------------------3--------------------------------------|

************************************

| /   slide up
| \   slide down
| h   hammer-on
| p   pull-off
| ~   vibrato
| +   harmonic
| x   Mute note
| b   Bend
| pb  Pre-bend
| br  Bend release
| pbr Pre-bend release
| brb Bend release bend

************************************
Добавлено: 30.11.2015
Другие материалы по этой песне:
  • Аккорды и текст

Страница создана 30.11.2015
http://primanota.ru/mexico-city-blondes/fade-chords.htm
Привет, Гость.
Предлагаем пройти революционный курс по гитаре.
Подарок от PrimaNota.Ru, забирай!