PrimaNota.ru - самый крупный в мире бесплатный архив песенных текстов, аккордов, табулатур и нот


Mewithoutyou - Tie Me Up Untie Me - текст песни, таба, бас-таба, видео

Регистрация Запомнить меня
Войти через:  Facebook Google Twitter Vk Yandex Mail.ru

Mewithoutyou - Tie Me Up Untie Me - текст песни, таба, бас-таба, видео

Печатать
Просмотров: 136
-------------------------------------------------------------------------------
                             SONG NAME - Band Name
-------------------------------------------------------------------------------
Tabbed by: David Hirotsu
Email: kowchxpteito@gmail.com

Tuning: d a d g b e

i noticed it wasnt on here
so i wrote a tab for other to have a starting point
first tab ever

00:19

|------------------------------------------------------------------|
|----------8---7----7-----------------------------8----7----7------|
|----9--------------------x--7--7---9---------9--------------------|
|--------------------------------------9--x------------------------|
|------------------------------------------------------------------|
|------------------------------------------------------------------|

|------------------------------------------------------------------|
|----------8---7----7-----------------------------8----7----7------|
|----9--------------------x--7--7---9---------9--------------------|
|--------------------------------------9--x------------------------|
|------------------------------------------------------------------|
|------------------------------------------------------------------|


----X---7--x—-7/------------------------------------------------|
----X---7--x—-7/------------------------------------------------|
----X---7—-x-—7/------------------------------------------------|
----------------------------------------------------------------|
----------------------------------------------------------------|
----------------------------------------------------------------| X7

|--------------------------------------------------------------|
|--------------------------------------------------------------|
|-------12-X?----11?-------12h14p12----------14h16p14----------|
|-------14-X?----12?------------------14-------------------14--|
|--------------------------------------------------------------|
|--------------------------------------------------------------|

|----------------------------------------------------------------|
|----------------------------------------------------------------|
|----------------------------------------------------------------|
|-------14--14--14---14-----17--16-16-16------12-12-12-14-14-14--|
|----------------------------------------------------------------|
|----------------------------------------------------------------|

Repeat a few times
|--------------------------------------------|
|--------------------------------------------|
|--------------------------------------------|
|-----------12--------12-------12—14---------|
|------14--------14-------14-----------------|
|--------------------------------------------|X4


|------------------------------------------------------------------|
|----------8---7----7-----------------------------8----7----7------|
|----9--------------------x--7--7---9---------9--------------------|
|--------------------------------------9--x------------------------|
|------------------------------------------------------------------|
|------------------------------------------------------------------|

----X---7--x—-7/------------------------------------------------|
----X---7--x—-7/------------------------------------------------|
----X---7—-x-—7/------------------------------------------------|
----------------------------------------------------------------|
----------------------------------------------------------------|
----------------------------------------------------------------|

|------------------------------------------------------------------|
|----------8---7----7-----------------------------8----7----7------|
|----9--------------------x--7--7---9---------9--------------------|
|--------------------------------------9--x------------------------|
|------------------------------------------------------------------|
|------------------------------------------------------------------|
repeat


|--------------------------------------------------------------|
|--------------------------------------------------------------|
|-------12-X?----11?-------12h14p12----------14h16p14----------|
|-------14-X?----12?------------------14-------------------14--|
|--------------------------------------------------------------|
|--------------------------------------------------------------|

|----------------------------------------------------------------------|
|----------------------------------------------------------------------|
|----------------------------------------------------------------------|
|-------14--14--14---14-----17------16-----14—17---16----14---17---16--|
|----------------------------------------------------------------------|
|----------------------------------------------------------------------|

feeedbaccccckkkkkkkkkkkkkkkkkkkkkkkk


|------------------|
|------------------|
|-----------5---4--|
|-------2---5---4--|
|-------2---3---2--|
|-------2----------|


|----------------------------------------------------------------------------|
|----------------------------------------------------------------------------|
|9------14-------12------9--------19-----17-----14----9~~~~~-----------------|
|----------------------------------------------------------------------------|
|----------------------------------------------------------------------------|
|----------------------------------------------------------------------------|
Добавлено: 19.06.2012
Другие материалы по этой песне:
  • Аккорды и текст

Страница создана 27.05.2012
http://primanota.ru/mewithoutyou/tie-me-up-untie-me-chords.htm
Привет, Гость.
Предлагаем пройти революционный курс по гитаре.
Подарок от PrimaNota.Ru, забирай!