PrimaNota.ru - самый крупный в мире бесплатный архив песенных текстов, аккордов, табулатур и нот


Mewithoutyou - Red Cow - таба, видео

Регистрация Запомнить меня
Войти через:  Facebook Google Twitter Vk Yandex Mail.ru

Mewithoutyou - Red Cow - таба, видео

Печатать
Просмотров: 139
-------------------------------------------------------------------------------
                             RED COW - mewithoutYou
-------------------------------------------------------------------------------
Pete D.
Drop D
Rhythm Guitar Only

Intro/Verse Breaks
|--------------------------------|
|--------------------------------|
|--------------------------------|
|---0---2---4---6--6/7-6--4------|
|-2-------------------------4----|
|--------------------------------|

Verse
|--------------------------------|
|--------------------------------|
|--------------------------------|
|--------------------------------|
|-----------5------------5---5---|
|-4------/7---7--4----/7---7---7-|

Chorus
|-----------------------------|
|-----------------------------|
|-----------------------------|
|-4-4-0-0-0-0-2-2/9-9-7-7/9-9-|
|-4-4-0-0-0-0-2-2/9-9-7-7/9-9-|
|-4-4-0-0-0-0-2-2/9-9-7-7/9-9-|

Solo
|----------------------------------------------------------------|
|----------------------------------5-5---------5-----------------|
|-11-11--11-11/14-14-14--16--9-----------------------------------|
|-x--x---x--x--x--x--x---x---x---------7-7-6-6---6-6-6-7-7-(4-4)-|
|-9--9---9--9//12-12-12--14--7-----------------------------------|
|----------------------------------------------------------------|

|------------------------------------------------------|
|-------------------9~---------------------------------|
|-------------------------11---14----16----19-18-------|
|-------------------------x----x-----x-----x--x--------|
|-----0-0-2-2-5-4-0-------9----12----14----17-16-------|
|-4-4--------------------------------------------------|


************************************

| /   slide up
| \   slide down
| h   hammer-on
| p   pull-off
| ~   vibrato
| +   harmonic
| x   Mute note
| b   Bend
| pb  Pre-bend
| br  Bend release
| pbr Pre-bend release
| brb Bend release bend

************************************
                                        
                                            
                                            
                                        
                                                                
                        
                        
                        
                                                        
    /* Ultimate-Guitar - Tab Pages */
    (function() {
        var opts = {
            artist: "Mewithoutyou",
            song: "Red Cow",
            genre: "",
            adunit_id: 39382312,
            div_id: "cf_async_" + Math.floor((Math.random() * 999999999)),
            hostname: "srv.tonefuse.com"
        };
        document.write('');var c=function(){cf.showAsyncAd(opts)};if(window.cf)c();else{cf_async=!0;var r=document.createElement("script"),s=document.getElementsByTagName("script")[0];r.async=!0;r.src="//"+opts.hostname+"/showads/showad.js";r.readyState?r.onreadystatechange=function(){if("loaded"==r.readyState||"complete"==r.readyState)r.onreadystatechange=null,c()}:r.onload=c;s.parentNode.insertBefore(r,s)};
    })();
    
    
                        
                                                    
                                                                    
                                    
                                     var amznTargs='';
                                     var key = 'amznslots';
                                     if ("amznads" in window) var values = amznads.getTokens('3x2'); //comma separated tokens
                                     if (values.length > 0) amznTargs='&'+key+'='+values;
                                    document.write('');
                                    
                                    
                                                            
                                                

                    

                
                
                
                    
                        comments
                    
                                            
                            We did not receive enough feedback on this tab! Please rate:
                        
                                        
                        print report bad tab
                    
                                            
                                                            1
                                                            2
                                                            3
                                                            4
                                                            5
                                                    
                                    
                
                                    
                
                    
                             
    
        1 comment total. 
            
    
                                
                
                
                    
                        
                            
                                
                                    
                                    
                                
                                                                    0
                                                            
                            reply
                            
                            
                        
                        mxerscott wrote on July 2 2015, 07:11 pm  
                    
                    
                        Chorus

e------------------------------------------------------
b------------------------------------------------------
g--11-11-----------9---------11-11-----------9----9-11-
d--------9-9-11-11---11------------9-9-11-11---11------
a------------------------------------------------------
e------------------------------------------------------
Добавлено: 17.12.2015
Другие материалы по этой песне:
  • Аккорды и текст

Страница создана 17.12.2015
http://primanota.ru/mewithoutyou/red-cow-chords.htm
Привет, Гость.
Предлагаем пройти революционный курс по гитаре.
Подарок от PrimaNota.Ru, забирай!