PrimaNota.ru - самый крупный в мире бесплатный архив песенных текстов, аккордов, табулатур и нот


Mewithoutyou - My Exit Unfair - текст песни, таба, видео

Регистрация Запомнить меня
Войти через:  Facebook Google Twitter Vk Yandex Mail.ru

Mewithoutyou - My Exit Unfair - текст песни, таба, видео

Печатать
Просмотров: 154
Song:   My Exit, Unfair
Artist: MewithoutYou
Album:  Catch for us the Foxes
    
Intro:

E|-----------------------------------------------------------------------12-|
B|-----------------------------------------------------------------------12-|
G|---------9----9/7----------------9----9/7---------------9----14--------10-| 
D|-9--12---9----------9----9--12---9---------9----9--12---9----14-12p0-9-10-|
A|---------7----------9------------7---------9------------7----12-----------|
E|-—------------------7----------------------7------------------------------|

E|--------------------------------------------------------------------------|
B|--------------------------------------------------------------------------|
G|-------------------9------------------------------------------------------| 
D|-9/5---7----10/9---9------------------------------------------------------|
A|-------7-----------7------------------------------------------------------|
E|-------5-----------7------------------------------------------------------|
Добавлено: 11.05.2012
Другие материалы по этой песне:
  • Аккорды и текст

Страница создана 11.05.2012
http://primanota.ru/mewithoutyou/my-exit-unfair-chords.htm
Привет, Гость.
Предлагаем пройти революционный курс по гитаре.
Подарок от PrimaNota.Ru, забирай!