PrimaNota.ru - самый крупный в мире бесплатный архив песенных текстов, аккордов, табулатур и нот


Mewithoutyou - February 1878 - текст песни, таба, видео

Регистрация Запомнить меня
Войти через:  Facebook Google Twitter Vk Yandex Mail.ru

Mewithoutyou - February 1878 - текст песни, таба, видео

Печатать
Просмотров: 67
Standard Tuning

Guitar 1
[0:00]-[1:21]
|---------------------------------------------|
|---------------------------------------------|
|---------------------------------------------|
|---------------------------------------------|
|--11-11-----11-11-----11-11-----11-11-14-14--|
|--------0-0-------0-0-------0-0--------------|
|
|---------------------------------------------|
|---------------------------------------------|
|---------------------------------------------|
|---------------------------------------------|
|--13-13-----13-13-----13-13-----13-13-16-16--|
|--------0-0-------0-0-------0-0--------------|
|
|----------------------------------------------------------------------------------|
|----------------------------------------------------------------------------------|
|----------------------------------------------------------------------------------|
|----------------------------------------------------------------------------------|
|--14-14-----14-14-----14-14----14-14-----13-13-----13-13-----13-13-----13-13------|
|--------0-0-------0-0-------0-0------0-0-------0-0-------0-0-------0-0-------0-0--|

Guitar 2
[0:14]-[0:27]
|---------------------------------------------------|
|---------------------------------------------------|
|---------------------------------------------------|
|--9--9--9--9--11-11-11-11-13-13-13-13-11-11-11-11--|
|--11-11-11-11-13-13-13-13-14-14-14-14-13-13-13-13--|
|---------------------------------------------------|

Guitar 2
[0:27]-[0:55]
|-------------------------------------------------------------|
|-------------------------------------------------------------|
|--9-9--9-9--9-9--9-9-13-13-11-11--11-11--11-11--11-11-15-15--|
|--9-9--9-9--9-9--9-9-13-13-11-11--11-11--11-11--11-11-15-15--|
|--7-7--7-7--7-7--7-7-11-11-9--9---9--9---9--9---9--9--13-13--|
|-------------------------------------------------------------|
|
|----------------------------------------------------------|
|----------------------------------------------------------|
|--13-13--13-13--13-13--13-13--11-11--11-11--11-11--11-11--|
|--13-13--13-13--13-13--13-13--11-11--11-11--11-11--11-11--|
|--11-11--11-11--11-11--11-11--9--9---9--9---9--9---9--9---|
|----------------------------------------------------------|

Guitar 2
[0:55]-[1:21]
|------------------------------------|
|--12--12--12--12--12--12--12--12----|
|----13--13--13--13--15--15--15--15--|
|------------------------------------|
|------------------------------------|
|------------------------------------|

Guitar 1
[1:21]-[2:03]
|---------------------------------------|
|---------------------------------------|
|-------------12-11---------------------|
|-------9-------------------12------12--|
|----10---10-------------10------10-----|
|--0-------------------0-------0--------|

Guitar 2
[1:36]-[2:03]
|---------------------------------------------------------------|
|----12p10---12-10--8-8-8-8-8-8----12p10---12-10--8-8-8-10-8-7--|
|--9-------9--------7-7-7-7-7-7--9-------9--------7-7-7---------|
|---------------------------------------------------------------|
|---------------------------------------------------------------|
|---------------------------------------------------------------|

Guitar 1
[2:03]-[2:31]         [2:31]-[2:34]
|---------------------|--------------|
|---------------------|--------------|
|-----------------4~--|--------------|
|-------5-5-5-----4~--|--2~----------|
|-------5-5-5-----2~--|--2~----------|
|--3~---3-3-3---------|--0~----------|

Guitar 2
[2:11]-[2:31]
|--7-10\5--7--|
|-------------|
|-------------|
|-------------|
|-------------|
|-------------|
|
|x3

Guitar 1
[2:34]-[3:01]
|---------------------------------------|
|---------------------------------------|
|-------------12-11---------------------|
|-------9-------------------12------12--|
|----10---10-------------10------10-----|
|--0-------------------0-------0--------|

Guitar 2
[2:34]-[3:01]
|---------------------------------------------------------------|
|----12p10---12-10--8-8-8-8-8-8----12p10---12-10--8-8-8-10-8-7--|
|--9-------9--------7-7-7-7-7-7--9-------9--------7-7-7---------|
|---------------------------------------------------------------|
|---------------------------------------------------------------|
|---------------------------------------------------------------|

Guitar 1
[3:01]-[3:42]
|---------------------|
|---------------------|
|-----------------4~--|
|-------5-5-5-----4~--|
|-------5-5-5-----2~--|
|--3~---3-3-3---------|

Guitar 2
[3:15]-[3:42]
|--12-12-12--10-10-10------------|
|--12-12-12--10-10-10--10~---12--|
|----------------------11~-------|
|--------------------------------|
|--------------------------------|
|--------------------------------|

Guitar 1
[3:42]-[3:46]
|---------|
|---------|
|---------|
|----2~---|
|----2~---|
|----0~---|

Guitar 2
[3:42]-[3:46]
|--------|
|--------|
|----9~--|
|--------|
|--------|
|--------|
Добавлено: 03.08.2013
Другие материалы по этой песне:
  • Аккорды и текст

Страница создана 03.08.2013
http://primanota.ru/mewithoutyou/february-1878-chords.htm
Привет, Гость.
Предлагаем пройти революционный курс по гитаре.
Подарок от PrimaNota.Ru, забирай!