PrimaNota.ru - самый крупный в мире бесплатный архив песенных текстов, аккордов, табулатур и нот


Mewithoutyou - East Enders Wives - текст песни, таба, видео

Регистрация Запомнить меня
Войти через:  Facebook Google Twitter Vk Yandex Mail.ru

Mewithoutyou - East Enders Wives - текст песни, таба, видео

Печатать
Просмотров: 104
Standard Tuning.


Guitar 1
[0:00]-[0:18]
|--------------------------------------------------------------------|
|---3-3-3-3-3-3-3-3-3-3-3-3-3-3-3-3-3-3-3-3-3-3-3-3-3-3-3-3-3-3-3-3--|
|--0-0-0-0-0-0-2-2-----------------3-3-3-2-0-0-0-0-2-2-2-0-----------|
|------------------0-0-0-0-0-0-0-0-------------------------0-0-0-0---|
|--------------------------------------------------------------------|
|--------------------------------------------------------------------|
|
|--------------------|
|---3-3-3-3-3-3-3-3--|
|--------------------|
|--3-3-3-3-2-2-2-2---|
|--------------------|
|--------------------|

Guitar 1
Come in on the upbeat
[0:18]-[0:47]
|------------------------------------|
|------------------------------------|
|----0-2-3-2-0-2-2-------------------|
|------------------0-----------------|
|------------------------------------|
|------------------------------------|
|
|x4

Guitar 2
Come in on the upbeat
[0:18]-[0:47]
|-------------------------------------|
|------------------------6------------|
|------------------7--9--7--9--9--9--9|
|------------------5--7-----7--7--7--7|
|-------------------------------------|
|-------------------------------------|
|
|x4

Guitar 1
[0:47]-[1:15]
|------------------------------------------------------|
|------------------------------------------------------|
|------------------------------------------------------|
|--5--7--8--10--12--10--8--7--10--8--7--5--8--7--5--3--|
|------------------------------------------------------|
|------------------------------------------------------|
|
|x2

Guitar 1
[1:15]-[1:44]
|------------------------------------|
|------------------------------------|
|----0-2-3-2-0-2-2-------------------|
|------------------0-----------------|
|------------------------------------|
|------------------------------------|
|
|x4

Guitar 2
Come in on the upbeat
[1:15]-[1:44]
|-------------------------------------|
|------------------------6------------|
|------------------7--9--7--9--9--9--9|
|------------------5--7-----7--7--7--7|
|-------------------------------------|
|-------------------------------------|
|
|x4

Guitar 1
[1:44]-[2:13]
|------------------------------------------------------|
|------------------------------------------------------|
|------------------------------------------------------|
|--5--7--8--10--12--10--8--7--10--8--7--5--8--7--5--3--|
|------------------------------------------------------|
|------------------------------------------------------|
|
|x2

Guitar 1
[2:13]-[2:52]
|--------------------------------------------|
|--------------------------------------------|
|--------------------------------------------|
|--3-3-3-2-0-0-2---0------3-3-3-2-0~---2-0~--|
|----------------3---0~----------------------|
|--------------------------------------------|
|
|--------------------------------------------|
|-----------------------------------------3--|
|-----------------------------------------2--|
|--3-3-3-2-0-0-2---0------3-3-3-2-0~----2-0--|
|----------------3---0~-------------------x--|
|--------------------------------------------|

Guitar 2
[2:13]-[2:52]
|-------------------------------------------------------------------|
|---3-3-3-3-3-3-3-3-3-3-3-3-3-3-3-3-3-3-3-3-3-3-3-3-3-3-3-3-3-3-3-3-|
|--0-0-0-0-0-0-2-2-----------------0-0-0-0-0-0-2-2------------------|
|------------------0-0-0-0-0-0-0-0-----------------0-0-0-0-0-0-0-0--|
|-------------------------------------------------------------------|
|-------------------------------------------------------------------|
|
|---------------------------------------------------------|
|---3-3-3-3-3-3-3-3-3-3-3-3-3-3-3-3-3-3-3-3-3-3-3-3-------|
|--3-3-3-2-0-0-0-0-2-2-2-0--------------------------------|
|--------------------------0-0-0-0-3-3-3-3-2-2-2-2----3---|
|-----------------------------------------------------5---|
|-----------------------------------------------------3---|
Добавлено: 21.10.2013
Другие материалы по этой песне:
  • Аккорды и текст

Страница создана 21.10.2013
http://primanota.ru/mewithoutyou/east-enders-wives-chords.htm
Привет, Гость.
Предлагаем пройти революционный курс по гитаре.
Подарок от PrimaNota.Ru, забирай!