PrimaNota.ru - самый крупный в мире бесплатный архив песенных текстов, аккордов, табулатур и нот


Metz - Wasted - таба, видео

Регистрация Запомнить меня
Войти через:  Facebook Google Twitter Vk Yandex Mail.ru

Metz - Wasted - таба, видео

Печатать
Просмотров: 102
Уроки эстрадного вокала в Санкт-Петербурге
Song: Wasted
Artist: METZ
Album: Metz (2012)
Guitarist: Alex Edkins

I just learned this all by ear so it doesn't necessarily have to be like they play it.

INTRO/CHORUS
e----------------------------------
b-------3-3-5b-5b------------------
g-------3-3-5b-5b------------------
D-------3-3-5b-5b------------------ x7 
A----------------------------------
E-5-5-5-----------2-2-2-2-2-2-2-2--

On the 8th time don't play the 2's just bend the 5's even more. Listen to the song to get it right.
Then play that same thing 3 times and on the 4th time bend the 5's just like before.

VERSE
e-----------------------------------------
b-----------------------------------------
g-3-3-3-3-3-3---6-6-6-6-6-6---------------
D-----------------------------7-7-7-7-7-7-
A-----------------------------------------
E-----------------------------------------

He plays this as up and down strokes. If you listen to the song you'll figure out the rythm. 
Repeat until chorus.

CHORUS
e----------------------------------
b-------3-3-5b-5b------------------
g-------3-3-5b-5b------------------
D-------3-3-5b-5b------------------ x4
A----------------------------------
E-5-5-5-----------2-2-2-2-2-2-2-2--

"You're wasted! You're already gone!"

VERSE

BRIDGE
e----------------------------------
b----------------------------------
g----------------------------------
D----------------------------------
A-6-6-6---6-6-6----6-6-6----6-6-6--
E-------8-------8--------8--------8

"I can't take it, I can't take it!"

SOLO
e---7---7---7--------------------------------
b-10--10--10----------8-8b10-8-8-8b10-8-8b10-
g--------------------------------------------
D--------------------------------------------
A--------------------------------------------
E--------------------------------------------
(+ a bunch of distortion and feedback!!!)

He plays it differently live but I tried to figure out something similar to the recording.

CHORUS x2

END NOTE
e--------------------------------------------------
b--------------------------------------------------
g--------------------------------------------------
D--------------------------------------------------
A--------------------------------------------------
E-1-1-1-1-1-1-1-1-1-1-1-1-1-1-1-1-1-1-1-1-1-1-1----

Yeah you get it.

Hope this helped, good luck! Remember, it's supposed to sound fucked up.


Lyrics:

It always falls apart when the lights turn on
You can't feel your legs, can't feel your face
Everybody's gone
You're wasted x 2
You feel no pain
It all adds up to nothing
Over and over again

You're wasted
You're already gone
You're wasted

Now there's nothing left to bring you down
You're hanging from the basement ceiling
Got you're feet off the ground

You're wasted x 2
It's never going stop
Sob story of a bleeding heart
It's going to hurt when you hit rock bottom

I can't take it x 8

You're wasted
You're already gone
You're wasted
You're already gone
Добавлено: 29.04.2016
Другие материалы по этой песне:
  • Аккорды и текст

Страница создана 29.04.2016
http://primanota.ru/metz/wasted-chords.htm
Привет, Гость.
Предлагаем пройти революционный курс по гитаре.
Подарок от PrimaNota.Ru, забирай!