PrimaNota.ru - самый крупный в мире бесплатный архив песенных текстов, аккордов, табулатур и нот


Metz - Spit You Out - бас-таба, видео

Регистрация Запомнить меня
Войти через:  Facebook Google Twitter Vk Yandex Mail.ru

Metz - Spit You Out - бас-таба, видео

Печатать
Просмотров: 43
-------------------------------------------------------------------------------
                             SPIT YOU OUT - METZ
-------------------------------------------------------------------------------
Tabbed by: Umar
E-mail: lol96uaz@gmail.com

Tuning: Standard

GOODLUCK! 

[INTRO]

G|---------------------------------------------------------------------------|
D|---------------------------------------------------------------------------|
A|---------------------------------------------------------------------------|
E|-3-3--0-444-0--3-3--0-444-0--3-3--0-444-0--3-3--0-444-0--3-3--0-444-0--3-3-|

G|---------------------------------------------------------------------------|
D|---------------------------------------------------------------------------|
A|---------------------------------------------------------------------------|
E|-0-444-0--3-3--0-444-0--3-3--0-444-0--3-3--0-444-0-------------------------|


[1st VERSE]

G|---------------------------------------------------------------------------|
D|---------------------------------------------------------------------------|
A|-10-10--8/11-11-11--7/10-10---8/11-11-11---7/10-10---8/11-11-11---7/10-10--|
E|---------------------------------------------------------------------------|

G|---------------------------------------------------------------------------|
D|---------------------------------------------------------------------------|
A|-8/11-11-11--7/10-10---8/11-11-11---7/10-10---8/11-11-11---7/10-10---------|
E|---------------------------------------------------------------------------|

G|---------------------------------------------------------------------------|
D|---------------------------------------------------------------------------|
A|-8/11-11-11--7/10-10---8/11-11-11------------------------------------------|
E|-----------------------------------/12-------------------------------------|

[1st PRE CHORUS]

G|---------------------------------------------------------------------------|
D|---------------------------------------------------------------------------|
A|---------------------------------------------------------------------------|
E|-3-3--0-444-0--3-3--0-444-0--3-3--0-444-0--3-3--0-444-0--3-3--0-444-0--3-3-|

WAIT FOR ALEX'S SHORT GUITAR SOLO FIRST

G|---------------------------------------------------------------------------|
D|---------------------------------------------------------------------------|
A|---------------------------------------------------------------------------|
E|-0-444-0--3-3--0-444-0--3-3--0-444-0----------6666/8888---------6666/8888/-|

[1st CHORUS]

G|---------------------------------------------------------------------------|
D|---------------------------------------------------------------------------|
A|---------------------------------------------------------------------------|
E|-3-3--0-444-0--3-3--0-444-0--3-3--0-4444/6666/888--3-3--0-444-0-3-3-0-444--|

G|---------------------------------------------------------------------------|
D|---------------------------------------------------------------------------|
A|---------------------------------------------------------------------------|
E|-0--3-3--0-4444/6666/888---------------------------------------------------|

[2nd VERSE]

G|---------------------------------------------------------------------------|
D|---------------------------------------------------------------------------|
A|-10-10--8/11-11-11--7/10-10---8/11-11-11---7/10-10---8/11-11-11---7/10-10--|
E|---------------------------------------------------------------------------|

G|---------------------------------------------------------------------------|
D|---------------------------------------------------------------------------|
A|-8/11-11-11--7/10-10---8/11-11-11---7/10-10---8/11-11-11---7/10-10---------|
E|---------------------------------------------------------------------------|

G|---------------------------------------------------------------------------|
D|---------------------------------------------------------------------------|
A|-8/11-11-11--7/10-10---8/11-11-11------------------------------------------|
E|-----------------------------------/12-------------------------------------|


[2nd PRE CHORUS]

G|---------------------------------------------------------------------------|
D|---------------------------------------------------------------------------|
A|---------------------------------------------------------------------------|
E|-3-3--0-444-0--3-3--0-444-0--3-3--0-444-0--3-3--0-444-0--3-3--0-444-0--3-3-|

WAIT FOR ALEX'S SHORT GUITAR SOLO FIRST

G|---------------------------------------------------------------------------|
D|---------------------------------------------------------------------------|
A|---------------------------------------------------------------------------|
E|-0-444-0--3-3--0-444-0--3-3--0-444-0----------6666/8888---------6666/8888/-|

[2nd CHORUS]

G|---------------------------------------------------------------------------|
D|---------------------------------------------------------------------------|
A|---------------------------------------------------------------------------|
E|-3-3--0-444-0--3-3--0-444-0--3-3--0-4444/6666/888--3-3--0-444-0-3-3-0-444--|

G|---------------------------------------------------------------------------|
D|---------------------------------------------------------------------------|
A|---------------------------------------------------------------------------|
E|-0--3-3--0-4444/6666/888---------------------------------------------------|

[SOLO]

WAIT FOR ALEX'S PRE-GUITAR SOLO FIRST

G|---------------------------------------------------------------------------|
D|---------------------------------------------------------------------------|
A|---------------------------------------------------------------------------|
E|-3-3--0-444-0--3-3--0-444-0--3-3--0-444-0--3-3--0-444-0--3-3--0-444-0--3-3-|

G|---------------------------------------------------------------------------|
D|---------------------------------------------------------------------------|
A|---------------------------------------------------------------------------|
E|-0-444-0--3-3--0-444-0--3-3--0-444-0--3-3--0-444-0-------------------------|


[3rd CHORUS]

G|---------------------------------------------------------------------------|
D|---------------------------------------------------------------------------|
A|---------------------------------------------------------------------------|
E|-3-3--0-444-0--3-3--0-444-0--3-3--0-4444/6666/888--3-3--0-444-0-3-3-0-444--|

G|---------------------------------------------------------------------------|
D|---------------------------------------------------------------------------|
A|---------------------------------------------------------------------------|
E|-0--3-3--0-4444/6666/888---------------------------------------------------|

========================================================================================


THANKS!



Добавлено: 29.04.2016
Вам также может быть интересно:
Другие материалы по этой песне:
  • Аккорды и текст

Страница создана 29.04.2016
http://primanota.ru/metz/spit-you-out-chords.htm
Привет, Гость.
Предлагаем пройти революционный курс по гитаре.
Подарок от PrimaNota.Ru, забирай!