PrimaNota.ru - самый крупный в мире бесплатный архив песенных текстов, аккордов, табулатур и нот


Metz - Acetate - таба, видео

Регистрация Запомнить меня
Войти через:  Facebook Google Twitter Vk Yandex Mail.ru

Metz - Acetate - таба, видео

Печатать
Просмотров: 27
-------------------------------------------------------------------------------
                             ACETATE - Metz
-------------------------------------------------------------------------------
Tabbed by: Umar
E-mail: lol96uaz@gmail.com

Tuning: Standard

[INTRO]

e|---------------------------------------------------------------------------|
B|---------------------------------------------------------------------------|
G|-4-7-4-4-7-4--7--4-4-7--4-4-7-7--4-7-4-4-7-4--7-4-4-7----------------------|
D|-4---4-4---4-----4-4----4-4------4---4-4---4----4-4------------------------|
A|-4---4-4---4-----4-4----4-4------4---4-4---4----4-4----66666pb-------------|
E|-4---4-4---4-----4-4----4-4------4---4-4---4----4-4------------------------|

[1st VERSE]

THE WHOLE VERSE JUST RANDOM SOUND FROM ALEX'S GUITAR, RIGHT BEFORE ENTERING
THE PRE CHORUS JUST STRUM THE WHOLE STRING

[PRE CHORUS]

AFTER THE FOURTH TIME, BEND THE 6TH G STRINGS

e|---------------------------------------------------------------------------|
B|-9------/---10----/---11----/---12-----------------------------------------|
G|-12-x10-/---13-x2-/---14-x2-/---15-x2--------------------------------------| x4
D|-11-----/---12----/---13----/---14-----------------------------------------|
A|------------------------------------------666666pb-------------------------|
E|---------------------------------------------------------------------------|

[1st CHORUS]

e|---------------------------------------------------------------------------|
B|---------------------------------------------------------------------------|
G|-4-7-4-4-7-4--7--4-4-7--4-4-7-7--4-7-4-4-7-4--7-4-4-7----------------------|
D|-4---4-4---4-----4-4----4-4------4---4-4---4----4-4---------x2---3-3--4----|
A|-4---4-4---4-----4-4----4-4------4---4-4---4----4-4----6pb-------3-3--4----|
E|-4---4-4---4-----4-4----4-4------4---4-4---4----4-4--------------3-3--4----|

[2nd VERSE]

SAME LIKE 1st VERSE, RANDOM SOUND

[2nd CHORUS]

e|---------------------------------------------------------------------------|
B|---------------------------------------------------------------------------|
G|-4-7-4-4-7-4--7--4-4-7--4-4-7-7--4-7-4-4-7-4--7-4-4-7----------------------|
D|-4---4-4---4-----4-4----4-4------4---4-4---4----4-4---------x2---3-3-3-4---|
A|-4---4-4---4-----4-4----4-4------4---4-4---4----4-4----6pb-------3-3-3-4---|
E|-4---4-4---4-----4-4----4-4------4---4-4---4----4-4--------------3-3-3-4---|

RIGHT BEFORE THE SOLO

STRUM AS FAST AS YOU CAN UNTIL THE END OF YOUR GUITAR NECK

e|---------------------------------------------------------------------------|
B|-9--/-10-/-11-/-12-/-13-/-14-/15-/16-/17-/18-/19---------------------------|
G|-12-/-13-/-14-/-15-/-16-/-17-/18-/19-/20-/21-/22---------------------------| 
D|-11-/-12-/-13-/-14-/-15-/-16-/17-/18-/19-/20-/21---------------------------|
A|---------------------------------------------------------------------------|
E|---------------------------------------------------------------------------|

[SOLO]

e|---------------------------------------------------------------------------|
B|---------------------------------------------------------------------------|
G|---------------------------------------------------------------------------|
D|-14-14---14-14--14---14-14--14---14----14-14----14-14--14------------------| x2
A|-12-12---12-12--12---12-12--12---12----12-12----12-12--12------------------|
E|-13-13pb-13-13--13pb-13-13--13pb-13pb--13-13pb--13-13--13pb----------------|

e|-------------------------------------|   e|--------------------------------|
B|-9------/---10----/--11----/--12-----|   B|-13-/-14-/15-/16-/17-/18-/19----|
G|-12-x10-/---13-x2-/--14-x2-/--15-x2--|x7 G|-16-/-17-/18-/19-/20-/21-/22----|
D|-11-----/---12----/--13----/--14-----|   D|-15-/-16-/17-/18-/19-/20-/21----|
A|-------------------------------------|   A|--------------------------------|
E|-------------------------------------|   E|--------------------------------|

e|-----------|
B|-----------|
G|-----------|
D|-3-3-3-4---|
A|-3-3-3-4---|
E|-3-3-3-4---|

[3rd CHORUS]

e|---------------------------------------------------------------------------|
B|---------------------------------------------------------------------------|
G|-4-7-4-4-7-4--7--4-4-7--4-4-7-7--4-7-4-4-7-4--7-4-4-7----------------------|
D|-4---4-4---4-----4-4----4-4------4---4-4---4----4-4---------x2---3-3--4----|
A|-4---4-4---4-----4-4----4-4------4---4-4---4----4-4----6pb-------3-3--4----|
E|-4---4-4---4-----4-4----4-4------4---4-4---4----4-4--------------3-3--4----|

e|---------------------------------------------------------------------------|
B|---------------------------------------------------------------------------|
G|-4-7-4-4-7-4--7--4-4-7--4-4-7-7--4-7-4-4-7-4--7-4-4-7----------------------|
D|-4---4-4---4-----4-4----4-4------4---4-4---4----4-4---------x2---3----4----|
A|-4---4-4---4-----4-4----4-4------4---4-4---4----4-4----6pb-------3-x7-4----|
E|-4---4-4---4-----4-4----4-4------4---4-4---4----4-4--------------3----4----|

************************************

| /   slide up
| \   slide down
| h   hammer-on
| p   pull-off
| ~   vibrato
| +   harmonic
| x   Mute note
| b   Bend
| pb  Pre-bend
| br  Bend release
| pbr Pre-bend release
| brb Bend release bend

************************************
Добавлено: 29.04.2016
Вам также может быть интересно:
Другие материалы по этой песне:
  • Аккорды и текст

Страница создана 29.04.2016
http://primanota.ru/metz/acetate-chords.htm
Привет, Гость.
Предлагаем пройти революционный курс по гитаре.
Подарок от PrimaNota.Ru, забирай!