PrimaNota.ru - самый крупный в мире бесплатный архив песенных текстов, аккордов, табулатур и нот


Metros - Education Part 2 - аккорды и текст, таба, бас-таба, видео

Регистрация Запомнить меня
Войти через:  Facebook Google Twitter Vk Yandex Mail.ru

Metros - Education Part 2 - аккорды и текст, таба, бас-таба, видео

Печатать
Просмотров: 166
Уроки эстрадного вокала в Санкт-Петербурге
Education Part 2
Metros
Nose si esta muy bien el final de la intro pero bueno.

Intro
|----------------------------------------------------------------------|
|----------------------------------------------------------------------|
|----------------------------------------------------------------------|
|-7/3--------------------------------------------2-3-333-2------2------|
|------3-3-3------------------3------1-2-3--3-3------------------------|
|-------------0-1-1-1-2-3-3-3---1-2-3-----------------------3-3----3-33|


Verse 1 

   C   F  F#m    G
E|-0---1---2----3-|
B|-1---1---2----3-|
G|-0---2---3----4-|
D|-2---3---4----5-|
A|-3---3---4----5-|
E|-----1---2----3-|


C  F  F#m    G
Education's overrated, and I'm the monster that it created.
And doing homework's anti-social, but I'm an a-star pupil
Gcse in music, I don't know how the f**k I'm gonna use it,
The time is of the essence, but the pills are a depressant
And I think I've learnt my lesson but I'm only adolescent



Chorus
   C   Em  Eb   Dm
E|-8---2---6----5--|
B|-8---2---7----6--|
G|-9---3---8----7--|
D|-10--4---8----7--|
A|-10--4---6----5--|
E|-8---2---6----5--| 


C C Em Eb Dm Dm Eb Em  - C
(Woah) x2
Do it again.
(Woah) x2


Intro - Solo    (C  F  F#m    G)


C  F  F#m    G
And all the wasted time I've spent, the grass is greener on the other side of the fence!
And to me, it makes no sense.
You get the grades, and then you pay the rent! x2



C C Em Eb Dm Dm Eb Em
(Woah) x2
Do it again.
(Woah) x2


   Em  F   Dm   G
E|-7---9----5---10-|
B|-8---10---6---12-|
G|-9---10---7---12-|
D|-9-- 10---7---12-|
A|-7-- 9----5---10-|
E|-7---9----5---10-| 


Em                        F 
I had a mate called paul, he was never too cool.
Em                           Eb Dm             Eb
Got himself chucked out of too, too many schools.
Em                         F
Didn't know what to do to, so he went and robbed a bank,
Em                          Eb      Dm Eb
With a sawn-off shotgun and his two-bint mate called frank. Aha!

Em              F
Got on a plane, down in heathrow,
G
Got nicked in the waiting room and got ten years,

And a f**king asbo!



C C Em Eb Dm Dm Eb Em  - C
(Woah) x2 
Do it again.
(Woah) x2


End
Добавлено: 29.04.2012
Другие материалы по этой песне:
  • Аккорды и текст

Страница создана 03.03.2012
http://primanota.ru/metros/education-part-2-chords.htm
Привет, Гость.
Предлагаем пройти революционный курс по гитаре.
Подарок от PrimaNota.Ru, забирай!