PrimaNota.ru - самый крупный в мире бесплатный архив песенных текстов, аккордов, табулатур и нот


Metronomy - Trick Or Treatz - текст песни, бас-таба, видео

Регистрация Запомнить меня
Войти через:  Facebook Google Twitter Vk Yandex Mail.ru

Metronomy - Trick Or Treatz - текст песни, бас-таба, видео

Печатать
Просмотров: 125
Авторы музыки: Joseph Mount
Авторы текста: Joseph Mount
Band: Metronomy	-   http://www.metronomy.co.uk/
Song: Trick or Treatz
Album: Pip Paine (Pay The £5000 You Owe)
Bassists: Joseph Mount, Gabriel Stebbing
Tabber: Ricardo P.

standard tuning

* = staccato
/ = slide

im not tabbing the correct order or the exact number of times each part is played, its 
that hard to figure it out, 
 but its a lot to type and explain. but all parts r here! 
so good luck!


INTRO

g|--------------------------------------------------------|
d|--------------------------------------------------------|x2
a|--4*-4*-4*-4*-4*-4*-4*-0-4-4-3*-3*-3*-3*-3*-3*-3*-0-3-3-|
e|--------------------------------------------------------|


VERSE

g|----------------------6--6---5--5--5--5---3--3--3--3---|
d|----6--6--6--6--6--6-----------------------------------|x1
a|--4--4--4--4--4--4 --4--4---3--3--3--3--3--3--3--3-----|
e|-------------------------------------------------------|


g|----------------------6--6---5--5--5--5---9--9--9--9---|
d|----6--6--6--6--6--6-----------------------------------|x1
a|--4--4--4--4--4--4 --4--4---3--3--3--3-/-7--7--7--7----|
e|-------------------------------------------------------|


g|--10--10--10--10--10--10----------|
d|--------------------------11--11--|
a|-8--8---8---8---8---8---8---8-----|
e|----------------------------------|

g|---------------------------------------|
d|----10--10--10--10--10--8---8---8------|
a|---------------------------------------|
e|--8---8---8---8---8---8---8---8--------|


CHORUS

Bass 1

g|----------------------6--6---5--5--5--5---3--3--3--3---|
d|----6--6--6--6--6--6-----------------------------------|x2
a|--4--4--4--4--4--4 --4--4---3--3--3--3--3--3--3--3-----|
e|-------------------------------------------------------|


g|----------------------6--6---5--5--5--5---9--9--9--9---|
d|----6--6--6--6--6--6-----------------------------------|x1
a|--4--4--4--4--4--4 --4--4---3--3--3--3-/-7--7--7--7----|
e|-------------------------------------------------------|

g|--10--10--10--10--10--10----------|
d|--------------------------11--11--|
a|-8--8---8---8---8---8---8---8-----|
e|----------------------------------|

Bass 2

g|--8-8-8-8-8-8-8-8-10-10-10-10-12-12-13-13-8-8-8-8-8-8-8-8-5-5-5-5-5-5-5-5-|
d|--------------------------------------------------------------------------|
a|--------------------------------------------------------------------------|
e|--------------------------------------------------------------------------|

INTERLUDE

Bass 1 & 2
g|---------------------------------------------------------------------|
d|---------------------------------------------------------------------|
a|---------------------------------------------------------------------|
e|-0-4-0-4-0-4-0-4-0-4-0-4-0-4-0-4-0-3-0-3-0-3-0-3-0-8-0-8-0-8-0-8-0-8-|

then with Bass 2 doing:

g|--8-8-8-8-8-8-8-8-10-10-10-10-12-12-13-13-8-8-8-8-8-8-8-8-5-5-5-5-5-5-5-5-|
d|--------------------------------------------------------------------------|
a|--------------------------------------------------------------------------|
e|--------------------------------------------------------------------------|


for the outro bass 2 keeps playing the g string riff and bass 1 switches back to
verse...

great great song!

http://www.metronomy.co.uk/

comments & corrections r welcome!

irotinmyskin@hotmail.com
Добавлено: 06.07.2012
Другие материалы по этой песне:

Страница создана 28.06.2012
http://primanota.ru/metronomy/trick-or-treatz-chords.htm
Привет, Гость.
Предлагаем пройти революционный курс по гитаре.
Подарок от PrimaNota.Ru, забирай!