PrimaNota.ru - самый крупный в мире бесплатный архив песенных текстов, аккордов, табулатур и нот


Metronomy - Radio Ladio - текст песни, таба, бас-таба, видео

Регистрация Запомнить меня
Войти через:  Facebook Google Twitter Vk Yandex Mail.ru

Metronomy - Radio Ladio - текст песни, таба, бас-таба, видео

Печатать
Просмотров: 269
Metronomy
Radio ladio!!!!!!!!!!!!!!


Starting riff:

e|----------------------------------------------|
B|----------------------Repeated quite alot-----|
G|----------------------------------------------|
D|--14-14-14--12-10-----------------------------|
A|--12-12-12--10-8------------------------------|
E|----------------------------------------------|

BASS NOTES:

A A - D D - C C - F F   =repeated alot

COOL KEYBOARD SOLO:

e|---------------------------------------------------------------------|
B|---------------------------------------------------------------------|
G|---14-17-14--------------14-17-14-------------------12--14---17-16---|
D|------------17-14--14-17----------17-14---14-17--12------------------|
A|---------------------------------------------------------------------|
E|---------------------------------------------------------------------|


CHORUS:
             A A   D D   C C   F F

Her name is: R A - D I - OOOOHHHHH

             A A   D D   C C   F F
  
             L A - D I - AHHHHHHHH       and so on....


thats pretty much it! enjoy
rate please. 5 star prefrebly lol
cheers xxx
Добавлено: 17.07.2012
Другие материалы по этой песне:
  • Аккорды и текст

Страница создана 08.03.2012
http://primanota.ru/metronomy/radio-ladio-chords.htm
Привет, Гость.
Предлагаем пройти революционный курс по гитаре.
Подарок от PrimaNota.Ru, забирай!