PrimaNota.ru - самый крупный в мире бесплатный архив песенных текстов, аккордов, табулатур и нот


Metronomy - On Dancefloors - текст песни, бас-таба, видео

Регистрация Запомнить меня
Войти через:  Facebook Google Twitter Vk Yandex Mail.ru

Metronomy - On Dancefloors - текст песни, бас-таба, видео

Печатать
Просмотров: 860
Start at 0:16

G-4-4-444-2-22-222-0--------------------|
D--------------------2/5-5-555-5-55-555-|
A---------------------------------------|
E---------------------------------------|

If you want to play the part of guitar (It starts at 0:30)

G-99-77-99-7-9/11--77-99-77-99-7-9-7-9-|
D----------------9---------------------|
A--------------------------------------|
E--------------------------------------|

G-1111-1212-1111-999999-7-9/11--77-99-77-99-7-9-7-9-|
D-----------------------------9---------------------|
A---------------------------------------------------|
E---------------------------------------------------|
Добавлено: 13.10.2013
Другие материалы по этой песне:
  • Аккорды и текст

Страница создана 13.10.2013
http://primanota.ru/metronomy/on-dancefloors-chords.htm
Привет, Гость.
Предлагаем пройти революционный курс по гитаре.
Подарок от PrimaNota.Ru, забирай!