PrimaNota.ru - самый крупный в мире бесплатный архив песенных текстов, аккордов, табулатур и нот


Metric - Hustle Rose - текст песни, таба, бас-таба, видео

Регистрация Запомнить меня
Войти через:  Facebook Google Twitter Vk Yandex Mail.ru

Metric - Hustle Rose - текст песни, таба, бас-таба, видео

Печатать
Просмотров: 100
I tabbed out 2 parts (a mix-up of the keyboard and guitar parts, and I think the bass at
point.) The first one is simply the most prominent part at the time, so it changes back
forth between instruments.

 Behold the fishnet slut tonight, Hustle Rose goes from limb to limb
e|-------0-3-5-3-------------------|
B|-----2---------5-3-5-2-5-2---5-2-|
G|-4-2-----------------------4-----|
D|---------------------------------|
A|---------------------------------|
E|---------------------------------|
 |                                 |
e|---------------------------------|
B|---------------------------------|
G|---------------------------------|
D|---------------------------------|
A|---------------------------------|
E|---------------------------------|


 Fingertip to painted lip she sways her way up to him
e|---0-2-5-7-5-2-----------------------|
B|-2-------------5-2-5-2---5-----------|
G|-----------------------4---6/4-4/2---|
D|-----------------------------------4-|
A|-------------------------------------|
E|-------------------------------------|
 |                                     |
e|-------------------------------------|
B|-------------------------------------|
G|-------------------------------------|
D|-------------------------------------|
A|-------------------------------------|
E|-------------------------------------|


 Says "Now that your wallet is all lit up"
e|-------------------------|
B|-------------------------|
G|-----2-4/6/7-9/7/6-4-4/2-|
D|-4/6---------------------|
A|-------------------------|
E|-------------------------|
 |                         | x8
e|-------------------------|
B|-------------------------|
G|-------------------------|
D|-------------------------|
A|-------------------------|
E|-------------------------|


 You're gonna wanna wear it out”
e|---------------|
B|---------------|
G|-2-2-4-2-1-----|
D|-----------4-2-|
A|---------------|
E|---------------|
 |               |
e|---------------|
B|---------------|
G|---------------|
D|---------------|
A|---------------|
E|---------------|


 If you're looking for something life-like, hit a sardine nightclub
e|-------------------------------|
B|-----2-------2-----------2/3/2-|
G|-2-2---2-1-1---1-----2---------|
D|-----------------4-4---4-------|
A|-------------------------------|
E|-------------------------------|
 |                               |
e|-------------------------------|
B|-------------------------------|
G|-------------------------------|
D|-------------------------------|
A|-------------------------------|
E|-------------------------------|


 If every surface you touch is cold, never go home. He says, “I can't feel a
e|-----------------------------------------|
B|-----2-------2-----------2/3/2-5/7-5-3-2-|
G|-2-2---2-1-1---1-----2-------------------|
D|-----------------4-4---4-----------------|
A|-----------------------------------------|
E|-----------------------------------------|
 |                                         |
e|-----------------------------------------|
B|-----------------------------------------|
G|-----------------------------------------|
D|-----------------------------------------|
A|-----------------------------------------|
E|-----------------------------------------|


 thing, my dreams are so tight. Why wouldn't I stand in line tonight?”
e|-----------------------------------|
B|-------2---------2-------------2-3-|
G|-2-2-4---4-2-1-1---4-2-1-----2-----|
D|-------------------------4-4-------|
A|-----------------------------------|
E|-----------------------------------|
 |                                   |
e|-----------------------------------|
B|-----------------------------------|
G|-----------------------------------|
D|-----------------------------------|
A|-----------------------------------|
E|-----------------------------------|


e|-------2---------------2---------------2---------------2---------|
B|-----3---3---3-------3---3---3-------2---2---2-------2---2---2---|
G|---2-------2---2---2-------2---2---2-------2---2---2-------2---2-|
D|-4---------------4---------------4---------------4---------------|
A|-----------------------------------------------------------------|
E|-----------------------------------------------------------------|
 |                                                                 |
e|-----------------------------------------------------------------|
B|-----------------------------------------------------------------|
G|-----------------------------------------------------------------|
D|-----------------------------------------------------------------|
A|---------------------------------7/9-9---7/9-9---7/9-9---7/9-9---|
E|-8/10-10-8/10-10-8/10-10-8/10-10---------------------------------|
                                                                      x2
e|-------2---------------2---------------0---------------0---------|
B|-----3---3---3-------3---3---3-------2---2---2-------2---2---2---|
G|---2-------2---2---2-------2---2---2-------2---2---2-------2---2-|
D|-4---------------4---------------4---------------2---------------|
A|-----------------------------------------------------------------|
E|-----------------------------------------------------------------|
 |                                                                 |
e|--------------------------------------------------------------------|
B|--------------------------------------------------------------------|
G|--------------------------------------------------------------------|
D|--------------------------------------------------------------------|
A|---------------------------------6/7-7---6/7-7---5/7-7---5/7-7------|
E|-5/7---7-5/7---7-5/7---7-5/7---7------------------------------------|


 Now that your wallet is all lit up
e|---------------------------------------------|
B|---------------------------------------------|
G|----------7----------7----------7----------7-|
D|-4-4--4-4---4-4--4-4---4-4--4-4---4-4--4-4---|
A|---------------------------------------------|
E|---------------------------------------------|
 |                                             |
e|---------------------------------------------|
B|---------------------------------------------|
G|---------------------------------------------|
D|---------------------------------------------|
A|---------------------------------------------|
E|-8/10----10-8/10----10-8/10----10-8/10----10-|

 Now that your wallet is all lit up
e|---------------------------------------------|
B|---------------------------------------------|
G|----------6----------6----------6----------6-|
D|-4-4--4-4---4-4--4-4---4-4--4-4---4-4--4-4---|
A|---------------------------------------------|
E|---------------------------------------------|
 |                                             |
e|---------------------------------------------|
B|---------------------------------------------|
G|---------------------------------------------|
D|---------------------------------------------|
A|-7/9------9-7/9------9-7/9------9-7/9------9-|
E|---------------------------------------------|
                                                  x2
 Now that your wallet is all lit up
e|---------------------------------------------|
B|---------------------------------------------|
G|----------7----------7----------7----------7-|
D|-4-4--4-4---4-4--4-4---4-4--4-4---4-4--4-4---|
A|---------------------------------------------|
E|---------------------------------------------|
 |                                             |
e|---------------------------------------------|
B|---------------------------------------------|
G|---------------------------------------------|
D|---------------------------------------------|
A|---------------------------------------------|
E|-5/-7-----7-5/7------7-5/7------7-5/7------7-|


 You're gonna wanna wear it out, you're gonna wanna wear it out
e|---------------------------------------------|
B|---------------------------------------------|
G|----------6----------6----------4----------4-|
D|-2-2--2-2---2-2--2-2---2-2--2-2---2-2--2-2---|
A|---------------------------------------------|
E|---------------------------------------------|
 |                                             |
e|---------------------------------------------|
B|---------------------------------------------|
G|---------------------------------------------|
D|---------------------------------------------|
A|-6/7------7-6/7------7-5/7------7-5/7------7-|
E|---------------------------------------------|


e|-------------------------------------------------------------------|
B|-------------------------------------------------------------------|
G|-----------------6-------4-------4---------2-----------------------|
D|-7-------------------------------------------------4---------------|
A|-------------------------------------------------------------------|
E|-------------------------------------------------------------------|
 |                                                                   |
e|-------------------------------------------------------------------|
B|-------------------------------------------------------------------|
G|-------------------------------------2---2---2---2---2---2---2---2-|
D|-----------------------5/9-9-7-5-4/5---5---5---5---4---4---4---4---|
A|-------------------------------------------------------------------|
E|-------------------------------------------------------------------|

e|-------------------------------------------------------------------|
B|-------------------------------------------------------------------|
G|-----------------6-------4-------4---------2-----------------------|
D|-7-------------------------------------------------4---------------|
A|-------------------------------------------------------------------|
E|-------------------------------------------------------------------|
 |                                                                   |
e|-------------------------------------------------------------------|
B|-------------------------------------------------------------------|
G|---2---2---2---2---2---2-------------2---2---2---2---2---2---2---2-|
D|-4---4---4---4---2---2---9-9-7-5-4/5---5---5---5---4---4---4---4---|
A|-------------------------------------------------------------------|
E|-------------------------------------------------------------------|

 You could throw me a bone if I get too close you wake me up remind me softly
e|-------------------------------------------------------------------|
B|-------------------------------------------------------------------|
G|-----------------6-------4-------4---------2-----------------------|
D|-7-------------------------------------------------4---------------|
A|-------------------------------------------------------------------|
E|-------------------------------------------------------------------|
 |                                                                   |
e|-------------------------------------------------------------------|
B|-------------------------------------------------------------------|
G|---2---2---2---2---2---2-------------2---2---2---2---2---2---2---2-|
D|-4---4---4---4---2---2---9-9-7-5-4/5---5---5---5---4---4---4---4---|
A|-------------------------------------------------------------------|
E|-------------------------------------------------------------------|

 to go, if I forget won't you wake me up, remind me
e|-------------------------------------------------------------------|
B|-------------------------------------------------------------------|
G|-----------------6-------4-------4---------2-----------------------|
D|-7-------------------------------------------------4---------------|
A|-------------------------------------------------------------------|
E|-------------------------------------------------------------------|
 |                                                                   |
e|-------------------------------------------------------------------|
B|-------------------------------------------------------------------|
G|---2---2---2---2---2---2-------------2---2---2---2---2---2---2---2-|
D|-4---4---4---4---2---2---9-9-7-5-4/5---5---5---5---4---4---4---4---|
A|-------------------------------------------------------------------|
E|-------------------------------------------------------------------|


           not to feel a thing, keep the dream tight, I can't feel a
e|-------------------------------------------------|
B|-------------------------2---------------2-------|
G|-----------------2---2-------2---1---1-------1---|
D|-------------------------------------------------|
A|-------------------------------------------------|
E|-------------------------------------------------|
 |                                                 |
e|-------------------------------------------------|
B|-------------------------------------------------|
G|---2---2---2---2---2---2---2---2---1---1---1---1-|
D|-4---4---4---4---4---4---4---4---2---2---2---2---|
A|-------------------------------------------------|
E|-------------------------------------------------|

 thing, my dreams are so tight, can't feel anything, my dreams are so tight,
 why wouldn't I stand in line tonight?
e|-----------------------------------------------------------------|
B|---------2---------------2---------------2---------------2-------|
G|-2---2-------2---1---1-------1---2---2-------2---1---1-------1---|
D|-----------------------------------------------------------------|
A|-----------------------------------------------------------------|
E|-----------------------------------------------------------------|
 |                                                                 |
e|-----------------------------------------------------------------|
B|-----------------------------------------------------------------|
G|---2---2---2---2---1---1---1---1---2---2---2---2---1---1---1---1-|
D|-4---4---4---4---2---2---2---2---4---4---4---4---2---2---2---2---|
A|-----------------------------------------------------------------|
E|-----------------------------------------------------------------|

e|---------------------------------|
B|---------------------------------|
G|---------------------------------|
D|---------------------------------|
A|---------------------------------|
E|---------------------------------|
 |                                 |
e|---------------------------------|
B|---------------------------------|
G|---------------------------------|
D|---------------------------------|
A|---------------------------------|
E|-8/10-10-8/10-10-8/10-10-8/10-10-|

e|--------------------------------------------------------|
B|--------------------------------------------------------|
G|--------------------------------------------------------|
D|--------------------------------------------------------|
A|--------------------------------------------------------|
E|--------------------------------------------------------|
 |                                                        |
e|--------------------------------------------------------|
B|--------------------------------------------------------|
G|--------------------------------------------------------|
D|--------------------------------------------------------|
A|--------------------------------------------------------|
E|-8/10-10-8/10-10-8/10-10-8/10-10-7/9-9-7/9-9-7/9-9-7/9-9|

e|-------------------------------------------------|
B|-------------------------------------------------|
G|-------------------------------------------------|
D|-------------------------------------------------|
A|-------------------------------------------------|
E|-------------------------------------------------|
 |                                                 |
e|-------------------------------------------------|
B|-------------------------------------------------|
G|-------------------------------------------------|
D|-------------------------------------------------|
A|-------------------------6/7-7-6/7-7-5/7-7-5/7-7-|
E|-5/7-7-5/7-7-5/7-7-5/7-7-------------------------|

e|-----------------------------------------------------------------------------------------|
B|-----------------------------------------------------------------------------------------|
G|----------7----------7----------7----------7----------6----------6----------6----------6-|
D|-4-4--4-4---4-4--4-4---4-4--4-4---4-4--4-4---4-4--4-4---4-4--4-4---4-4--4-4---4-4--4-4---|
A|-----------------------------------------------------------------------------------------|
E|-----------------------------------------------------------------------------------------|
 |
e|-----------------------------------------------------------------------------------------|
B|-----------------------------------------------------------------------------------------|
G|-----------------------------------------------------------------------------------------|
D|-----------------------------------------------------------------------------------------|
A|---------------------------------------------7/9------9-7/9------9-7/9------9-7/9------9-|
E|-8/10----10-8/10----10-8/10----10-8/10----10---------------------------------------------|

e|-----------------------------------------------------------------------------------------|
B|-----------------------------------------------------------------------------------------|
G|----------7----------7----------7----------7----------6----------6----------4----------4-|
D|-4-4--4-4---4-4--4-4---4-4--4-4---4-4--4-4---2-2--2-2---2-2--2-2---2-2--2-2---2-2--2-2---|
A|-----------------------------------------------------------------------------------------|
E|-----------------------------------------------------------------------------------------|
 |                                                                                       
 |
e|-----------------------------------------------------------------------------------------|
B|-----------------------------------------------------------------------------------------|
G|-----------------------------------------------------------------------------------------|
D|-----------------------------------------------------------------------------------------|
A|---------------------------------------------6/7------7-6/7------7-5/7------7-5/7------7-|
E|-5/-7-----7-5/7------7-5/7------7-5/7------7---------------------------------------------|

e|-----------------------------------------------------------------------------------------|
B|-----------------------------------------------------------------------------------------|
G|----------7----------7----------7----------7----------6----------6----------6----------6-|
D|-4-4--4-4---4-4--4-4---4-4--4-4---4-4--4-4---4-4--4-4---4-4--4-4---4-4--4-4---4-4--4-4---|
A|-----------------------------------------------------------------------------------------|
E|-----------------------------------------------------------------------------------------|
 |
e|-------0----2-----5----7-----5----2------------------------------------------------------|
B|-2---------------------------------------5---2---5---2--------5--------------------------|
G|--------------------------------------------------------4----------6---------------------|
D|-----------------------------------------------------------------------------------------|
A|-----------------------------------------------------------------------------------------|
E|-----------------------------------------------------------------------------------------|

e|-----------------------------------------------------------------------------------------|
B|-----------------------------------------------------------------------------------------|
G|----------7----------7----------7----------7----------6----------6----------4----------4-|
D|-4-4--4-4---4-4--4-4---4-4--4-4---4-4--4-4---2-2--2-2---2-2--2-2---2-2--2-2---2-2--2-2---|
A|-----------------------------------------------------------------------------------------|
E|-----------------------------------------------------------------------------------------|
 |
e|-------0----2-----5----7-----5----2------------------------------------------------------|
B|-2---------------------------------------5---2---5---2--------5--------------------------|
G|--------------------------------------------------------4----------6/4-------------------|
D|------------------------------------------------------------------------------7/4--------|
A|-----------------------------------------------------------------------------------------|
E|-----------------------------------------------------------------------------------------|

e|-----------------------------------------------------------------------------------------|
B|-----------------------------------------------------------------------------------------|
G|----------7----------7----------7----------7----------6----------6----------6----------6-|
D|-4-4--4-4---4-4--4-4---4-4--4-4---4-4--4-4---4-4--4-4---4-4--4-4---4-4--4-4---4-4--4-4---|
A|-----------------------------------------------------------------------------------------|
E|-----------------------------------------------------------------------------------------|
 |                                                                                       
 |
e|-------0----2-----5----7-----5----2------------------------------------------------------|
B|-2---------------------------------------5---2---5---2--------5--------------------------|
G|--------------------------------------------------------4----------6---------------------|
D|-----------------------------------------------------------------------------------------|
A|-----------------------------------------------------------------------------------------|
E|-----------------------------------------------------------------------------------------|

e|-----------------------------------------------------------------------------------------|
B|-----------------------------------------------------------------------------------------|
G|----------7----------7----------7----------7----------6----------6----------4----------4-|
D|-4-4--4-4---4-4--4-4---4-4--4-4---4-4--4-4---2-2--2-2---2-2--2-2---2-2--2-2---2-2--2-2---|
A|-----------------------------------------------------------------------------------------|
E|-----------------------------------------------------------------------------------------|
 |
e|-------0----2-----5----7-----5----2------------------------------------------------------|
B|-2---------------------------------------5---2---5---2--------5--------------------------|
G|--------------------------------------------------------4----------6/4--2/4--------------|
D|------------------------------------------------------------------------------4----------|
A|-----------------------------------------------------------------------------------------|
E|-----------------------------------------------------------------------------------------|

e|-----------------------------------------------------------------------------------------|
B|-----------------------------------------------------------------------------------------|
G|----------7----------7----------7----------7----------6----------6----------6----------6-|
D|-4-4--4-4---4-4--4-4---4-4--4-4---4-4--4-4---4-4--4-4---4-4--4-4---4-4--4-4---4-4--4-4---|
A|-----------------------------------------------------------------------------------------|
E|-----------------------------------------------------------------------------------------|
 |                                                                                       
 |
e|-------0----2-----5----7-----5----2------------------------------------------------------|
B|-2---------------------------------------5---2---5---2--------5--------------------------|
G|--------------------------------------------------------4----------6---------------------|
D|-----------------------------------------------------------------------------------------|
A|-----------------------------------------------------------------------------------------|
E|-----------------------------------------------------------------------------------------|

e|-----------------------------------------------------------------------------------------|
B|-----------------------------------------------------------------------------------------|
G|----------7----------7----------7----------7----------6----------6----------4----------4-|
D|-4-4--4-4---4-4--4-4---4-4--4-4---4-4--4-4---2-2--2-2---2-2--2-2---2-2--2-2---2-2--2-2---|
A|-----------------------------------------------------------------------------------------|
E|-----------------------------------------------------------------------------------------|
 |
e|-------0----2-----5----7-----5----2------------------------------------------------------|
B|-2---------------------------------------5---2---5---2--------5--------------------------|
G|--------------------------------------------------------4----------6/4-------------------|
D|------------------------------------------------------------------------------7/4--------|
A|-----------------------------------------------------------------------------------------|
E|-----------------------------------------------------------------------------------------|

e|---------------------------------------|
B|---------------------------------------|
G|---------6---4-------4-----2-----------|
D|-7-----------------------------4-------|
A|---------------------------------------|
E|---------------------------------------|
 |                                       |
e|---------------------------------------|
B|---------------------------------------|
G|---2---2---2-------------2---2---2---2-|
D|-4---4---2---9-9-7-5-4/5---5---4---4---|
A|---------------------------------------|
E|---------------------------------------|

e|---------------------------------------|
B|---------------------------------------|
G|---------6---4-------4-----2-----------|
D|-7-----------------------------4-------|
A|---------------------------------------|
E|---------------------------------------|
 |                                       |
e|---------------------------------------|
B|---------------------------------------|
G|---2---2---2-------------2---2---2---2-|
D|-4---4---2---9-9-7-5-4/5---5---4---4---|
A|---------------------------------------|
E|---------------------------------------|

e|---------------------------------------|
B|---------------------------------------|
G|---------6---4-------4-----6---7-------|
D|-7-------------------------------------|
A|---------------------------------------|
E|---------------------------------------|
 |                                       |
e|---------------------------------------|
B|---------------------------------------|
G|---2---2---2-------------2---2---2---2-|
D|-4---4---2---9-9-7-5-4/5---5---4---4---|
A|---------------------------------------|
E|---------------------------------------|

e|---------------------------------------|
B|---------------------------------------|
G|---------6---4-------4-----2-----------|
D|-7-----------------------------4-------|
A|---------------------------------------|
E|---------------------------------------|
 |                                       |
e|---------------------------------------|
B|---------------------------------------|
G|---2---2---2-------------2---2---------|
D|-4---4---2---9-9-7-5-4/5---5---4-------|
A|---------------------------------------|
E|---------------------------------------|
Добавлено: 21.09.2013
Другие материалы по этой песне:
  • Аккорды и текст

Страница создана 20.05.2012
http://primanota.ru/metric/hustle-rose-chords.htm
Привет, Гость.
Предлагаем пройти революционный курс по гитаре.
Подарок от PrimaNota.Ru, забирай!