PrimaNota.ru - самый крупный в мире бесплатный архив песенных текстов, аккордов, табулатур и нот


Metric - Handhake - таба, видео

Регистрация Запомнить меня
Войти через:  Facebook Google Twitter Vk Yandex Mail.ru

Metric - Handhake - таба, видео

Печатать
Просмотров: 82
HAND$HAKE$ - Metric

VERSE 1:
|--------------------------------------------------------------------|
|--------------------------------------------------------------------|
|--------------------------------------------------------------------|
|--14-14-14-12--9--7--7-7-7-7-7-7-9-12-12-12-9--7--5--5-5-5-5-7-9-12-|
|--12-12-12-10--7--5--5-5-5-5-5-5-7-10-10-10-7--5--3--3-3-3-3-5-7-10-|
|--------------------------------------------------------------------|
Say you wanna get in, and then you wanna get out

|--------------------------------------------------------------------|
|--------------------------------------------------------------------|
|--------------------------------------------------------------------|
|--14-14-14-12--9--7--7-7-7-7-7-7-9-12-12-12-9--7--5--5-5-5-5-5-5-7--|
|--12-12-12-10--7--5--5-5-5-5-5-5-7-10-10-10-7--5--3--3-3-3-3-3-3-5--|
|--------------------------------------------------------------------|
When you get the money, to buy yourself a castle

|--------------------------------------------------------------|
|--------------------------------------------------------------|
|--------------------------------------------------------------|
|--10-10-10-7--5--4--4-4-4-4-4-4-4-9-9-9--5--4--2-2-2-2-2-2-2--|
|--8--8--8--5--3--2--2-2-2-2-2-2-2-7-7-7--3--2--0-0-0-0-0-0-0--|
|--------------------------------------------------------------|
How will you wear your leisure, zipper back and front

|------------------------------------|
|------------------------------------|
|--11-11-11-8--------------11--------|
|--9--9--9--6--9--7--------9---------|
|--------------7--5------------------|
|------------------------------------|
On the fence together, weekends in leather

VERSE 2:
|-----------------------------------------------------------------------|
|-----------------------------------------------------------------------|
|-----------------------------------------------------------------------|
|--10-10-10-10-10-10-\-3--3-3-3-3-3-3-3/9-9-9-9-9-9-\-5--5-5-5-5-5-7-5--|
|-----------------------------------------------------------------------|
|-----------------------------------------------------------------------|
Flip to the right      Slip back to the left
For handshakes at the ranch, small talk at the crossroads

|-----------------------------------------------------------------|
|-----------------------------------------------------------------|
|-----------------------------------------------------------------|
|--7-7-7-7-7-7-/-9--9-9-9-9-9-9-9/6-6-6-6-6-6-\-7--7-7-7-7-7-7-7--|
|-----------------------------------------------------------------|
|-----------------------------------------------------------------|
Rubbing up to the ladder, sucking on every rung

|---------------------|
|---------------------|
|---------------------|
|--9-9-9-6------------|
|----------7-8--------|
|---------------------|
Coming up forever and hanging on

RIFF 1:
 ______________3x_______________
|-------------------------------|---------------------------|
|-------------------------------|---------------------------|
|-------------------------------|---------------------------|
|-7-5---5--5---------6----------|--5---------6---------7----|
|-----7------7-5-------8-7-5----|----7-5-------8-7-5--------|
|----------------8-7---------5--|--------8-7---------5------|

VERSE 3: (SAME RIFFING AS IN VERSE 1)

That's entertainment, when the cameras roll
Can you face the pavement, for a happy dog and pony show
Everybody loves you baby, of coarse they do
Do you miss me, I miss you

RIFF 1 (4x)

|-----------------------------------------------------------------|
|-----------------------------------------------------------------|
|-----------------------------------------------------------------|
|--6-6-6-6-6-6-6-6-6-6-6-6-6-6-6----------------------------------|
|--------------------------------8-8-8-8-8-8-8-8-8-8-8-8-8-8-8-8--|
|-----------------------------------------------------------------|

|-----------------------------------|
|-----------------------------------|
|-----------------------------------|
|-----------------------------------|
|--6-6-6-6-6-6-6-6-5-5-5-5-5-5-5-5--|
|-----------------------------------|

C5              G#5
Buy this car to drive to work

F5
Drive to work to pay for this car

(REPEAT)

Say you wanna get in, and you're gonna get out
But you won't, 'cause it's a trial
Добавлено: 13.10.2013
Другие материалы по этой песне:
  • Аккорды и текст

Страница создана 13.10.2013
http://primanota.ru/metric/handhake-chords.htm
Привет, Гость.
Предлагаем пройти революционный курс по гитаре.
Подарок от PrimaNota.Ru, забирай!