PrimaNota.ru - самый крупный в мире бесплатный архив песенных текстов, аккордов, табулатур и нот


Metric - Empty - текст песни, таба, бас-таба, видео

Регистрация Запомнить меня
Войти через:  Facebook Google Twitter Vk Yandex Mail.ru

Metric - Empty - текст песни, таба, бас-таба, видео

Печатать
Просмотров: 141
Авторы музыки: Metric

Intro:

e---7---7-7---7-7---7-7---7-|
B----5-5---------5-5--------|
G----------4-4---------4-4--|
D---------------------------|
A---------------------------|
E---------------------------|

Verse 1 (tried to take a picture of love...) (if you have a band and you're gonna play
song, you can just use the guitar in clean guitar mode and do this. You don't have to use
unless you want to. Most likely, the bass does the E (E--0--), A (A--0--), C# (A--4--) parts):

e-7---7-7---7-7---7-7---7-7---7-7---7-7---7-7---7-7---7-7---7-7---7-7----7-|
B--5-5---------5-5---------5-5---------5-5---------5-5---------5-5---------|
G--------4-4---------4-4---------4-4---------4-4---------4-4---------4-4---|
D--------------------------------------------------------------------------|
A-------------------------0-----------------------4------------------------|
E-0------------------------------------------------------------------------|

e-7---7-7---7-7---7-7---7-|
B--5-5---------5-5--------|
G--------4-4---------4-4--|
D-------------------------|
A-0-----------------------|
E-------------------------|

Verse 2: (tried to write a letter in ink...):

e-7---7-7---7-7---7-7---7-7---7-7---7-7---7-7---7-7---7-7---7-7---7-7----7-|
B--5-5---------5-5---------5-5---------5-5---------5-5---------5-5---------|
G--------4-4---------4-4---------4-4---------4-4---------4-4---------4-4---|
D--------------------------------------------------------------------------|
A-------------------------0-----------------------4------------------------|
E-0------------------------------------------------------------------------|

e-7---7-7---7-7------------|
B--5-5---------5-5-7-7-----|
G--------4-4----------4-4--|
D--------------------------|
A-0------------------------|
E--------------------------|

Chorus 1: (as simple as this):

E                                B
Maybe we're trying, trying too hard.
                     C#m
Maybe we're torn apart.
                                       Asus2
Maybe the timing, is beating our hearts.
            (do intro)
We're empty.

Verse 3 (and I even wonder if we...):

e-7---7-7---7-7---7-7---7-7---7-7---7-7---7-7---7-7---7-7---7-7---7-7----7-|
B--5-5---------5-5---------5-5---------5-5---------5-5---------5-5---------|
G--------4-4---------4-4---------4-4---------4-4---------4-4---------4-4---|
D--------------------------------------------------------------------------|
A-------------------------0-----------------------4------------------------|
E-0------------------------------------------------------------------------|

e-7---7-7---7-7------------|
B--5-5---------5-5-7-7-----|
G--------4-4----------4-4--|
D--------------------------|
A-0------------------------|
E--------------------------|

Chorus 2 (different from chorus 1) (do this as soft as you can, but enough to hear it of
Note: still clean guitar, no distortion yet) (note: the number below in the chorus is
(eleven) not 1 (one))

e--------------------------------------------------------------------------|
B-0000000000000000000000000000000000000000000000000-0-0-0-0-0-0-0-00000000-|
G-999999999999999988888888888888889999999999999999111111111111111199999999
D-------------------------------------------------9-9-9-9-9-9-9-9-77777777-|
A-777777777777777766666666666666667777777777777777-------------------------|
E-000000000000000077777777777777779999999999999999-------------------------|

Bridge (one guitar (Kyle Patrick) will be doing the chords (C#m, B, Asus2, C#m, B,
while the other guitar (Joe Guese) will be doing this. Listen to the song to get the 
timing):

e----------------------------------|
B---7/9-------7------7/9-----------|
G-6----8-8/9-6------6---8-8/9-6-11-|
D--------------6/7\6---------------|
A----------------------------------|
E----------------------------------|

Chorus 3 (you may, or you may not put distortion here):

e--------------------------------------------------------------------------|
B-0000000000000000000000000000000000000000000000000-0-0-0-0-0-0-0-00000000-|
G-999999999999999988888888888888889999999999999999111111111111111199999999
D-------------------------------------------------9-9-9-9-9-9-9-9-77777777-|
A-777777777777777766666666666666667777777777777777-------------------------|
E-000000000000000077777777777777779999999999999999-------------------------|

Do chorus 3 three times then do the chord E to and let it fade away. There is an extra
to the end by Joe Guese only on the e string. There's a little bit of delay here:

e-16-12-

But if you don't have a delay pedal, do this:

e-16-16-12

This is it. Hope you like it. I'm not sure it's correct, but when you do this on the
(specifically electric), it will sound like the real thing.
Добавлено: 28.11.2013
Другие материалы по этой песне:
  • Аккорды и текст

Страница создана 06.06.2012
http://primanota.ru/metric/empty-chords.htm
Привет, Гость.
Предлагаем пройти революционный курс по гитаре.
Подарок от PrimaNota.Ru, забирай!