PrimaNota.ru - самый крупный в мире бесплатный архив песенных текстов, аккордов, табулатур и нот


Metric - Black History Month - таба, видео

Регистрация Запомнить меня
Войти через:  Facebook Google Twitter Vk Yandex Mail.ru

Metric - Black History Month - таба, видео

Печатать
Просмотров: 96
Acoustic cover from Metric off Death From Above 1979 - Black History Month. Two great 
Canadian Bands.

You can find the cover on spotify.

Tuning Standard: EADGBe


Intro

e|------------------------------------------------------------------------|
B|------------------------------------------------------------------------|
G|---7---7---7---7-----5---5---5---5-----7---7---7---7----5---5-----------|
D|-5---5---5---5-----3---3---3---3-----5---5---5---5----3---3-----5---5---|
A|--------------------------------------------------------------3---3-----|
E|------------------------------------------------------------------------|

e|------------------------------------------------------------------------|
B|------------------------------------------------------------------------|
G|---7---7---7---7-----5---5---5---5-----7---7---7---7----3---3-----------|
D|-5---5---5---5-----3---3---3---3-----5---5---5---5----1---1-----5---5---|
A|--------------------------------------------------------------3---3-----|
E|------------------------------------------------------------------------|


Verse
e|------------------------------------------------------------------------|
B|------------------------------------------------------------------------|
G|---7---7---7---7-----5---5---5---5-----7---7---7---7----5---5---5---5---|
D|-5---5---5---5-----3---3---3---3-----5---5---5---5----3---3---3---3-----|
A|------------------------------------------------------------------------|
E|------------------------------------------------------------------------|

e|------------------------------------------------------------------------|
B|------------------------------------------------------------------------|
G|---7---7---7---7-----5---5---5---5-----7---7---7---7----3---3-----------|
D|-5---5---5---5-----3---3---3---3-----5---5---5---5----1---1-----5---5---|
A|--------------------------------------------------------------3---3-----|
E|------------------------------------------------------------------------|


Chorus
e|------------------------------------------------------------------------|
B|------------------------------------------------------------------------|
G|---7---7---7---7-----5---5---5---5-----3---3---3---3--------------------|
D|-5---5---5---5-----3---3---3---3-----1---1---1---1------5---5---5---5---| x4
A|------------------------------------------------------3---3---3---3-----|
E|------------------------------------------------------------------------|

Intro
Verse
Chorus x2
Intro

Simple enough
Добавлено: 02.12.2013
Другие материалы по этой песне:
  • Аккорды и текст

Страница создана 02.12.2013
http://primanota.ru/metric/black-history-month-chords.htm
Привет, Гость.
Предлагаем пройти революционный курс по гитаре.
Подарок от PrimaNota.Ru, забирай!