PrimaNota.ru - самый крупный в мире бесплатный архив песенных текстов, аккордов, табулатур и нот


Method Of Destruction - Dead Men - таба, видео

Регистрация Запомнить меня
Войти через:  Facebook Google Twitter Vk Yandex Mail.ru

Method Of Destruction - Dead Men - таба, видео

Печатать
Просмотров: 123
Уроки эстрадного вокала в Санкт-Петербурге
Dead Men - Method of Destruction
Tabbed by: Jeff
Email: JAM66upyrs@msn.com
Album: USA For MOD            Legend:
                              PM_ = Palm-Mute
                              ()  = Hold Note
Tuning: Standard
        e B G D A E

Intro: (0:00)
         x4
e---------|
B---------|
G---------|
D-----(4)-|
A-5-4-(2)-|
E-3-2-----|


Verse:(0:05)
    Section I        Section II
e---------------|------------------||
B---------------|------------------||
G---------------|------------------||
D-4--4-4-4------|--4-4-4-4-4-4-----||
A-2--2-2-2-5-4--|--2-2-2-2-2-2-5-4-||
E----------3-2--|--------------3-2-||


Fill into Bridge:

e-----------------|
B-----------------|
G-----------------|
D-4-4-4-4-4-4-----|
A-2-2-2-2-2-2-5-4-|
E-------------3-2-|


Bridge:(0:18)

e-------------------------------------------------|
B-------------------------------------------------|
G-------------------------------------------------|
D-6--6--6--6--7--7--7--7--------------4--4--------|
A-4--4--4--4--5--5--5--5--5--5--4--4--------9-9---|
E-------------------------3--3--2--2--2--2--7-7---|


Fill into Breakdown:

e-------------|
B-------------|
G-------------|
D-4-4-4-4-4-4-|
A-2-2-2-2-2-2-|
E-------------|


Breakdown:(0:39)

e-----|------------|---------|-------||
B-----|------------|---------|-------||
G-----|------------|---------|-------||
D-----|------------|-------4-|-----4-||
A-(5)-|-------(4)--|-------2-|-5-4-2-||
E-(3)-|-0-0-0-(2)--|-0-0-0---|-3-2---||
      PM_____      PM_____



Outro:(0:47)

e-----|------||
B-----|------||
G-----|------||
D-----|-(4)--||
A-5-4-|-(2)--||
E-3-2-|------||


At this point, Dead Men ends and the Intro to Most comes in




Добавлено: 23.06.2012
Другие материалы по этой песне:
  • Аккорды и текст

Страница создана 23.06.2012
http://primanota.ru/method-of-destruction/dead-men-chords.htm
Привет, Гость.
Предлагаем пройти революционный курс по гитаре.
Подарок от PrimaNota.Ru, забирай!