PrimaNota.ru - самый крупный в мире бесплатный архив песенных текстов, аккордов, табулатур и нот


Meters - Stretch Your Rubber Band - бас-таба, видео

Регистрация Запомнить меня
Войти через:  Facebook Google Twitter Vk Yandex Mail.ru

Meters - Stretch Your Rubber Band - бас-таба, видео

Печатать
Просмотров: 69
Уроки эстрадного вокала в Санкт-Петербурге
-----------------------------------------------------------------
The Meters - Stretch Your Rubber Band
-----------------------------------------------------------------

Tabbed By: Dennis Metin
e-mail: info@dmetin.com

Tuning: standard tuning
Intro/main riff
G|----------------------------------------------------------------|
D|---------------5------------------------------------------------|
A|------------5h7-------------------------------------------------|
E|-55-5-5-55-5----------------------------------------------------|

Chorus Riff 1
G|---------------------------------------------------------------|
D|-7-5---5----------5--------------------------------------------|
A|-----7---5-7---5h7---------------------------------------------|
E|------------5-5------------------------------------------------|

Chorus Riff 2
G|---------------------------------------------------------------|
D|-7~-5~-7-5-------------------5---------------------------------|
A|-----------7-5------------5h7----------------------------------|
E|---------------55-5-5-55-5-------------------------------------|

Outro/main riff
G|----------------------------------------------------------------|
D|---------------5------------------------------------------------|
A|------------5h7-------------------------------------------------|
E|-55-5-5-55-5----------------------------------------------------|


| / slide up
| \ slide down
| h hammer-on
| p pull-off
| ~ vibrato
| + harmonic
| x Mute note
Добавлено: 29.11.2013
Другие материалы по этой песне:
  • Аккорды и текст

Страница создана 29.11.2013
http://primanota.ru/meters/stretch-your-rubber-band-chords.htm
Привет, Гость.
Предлагаем пройти революционный курс по гитаре.
Подарок от PrimaNota.Ru, забирай!