PrimaNota.ru - самый крупный в мире бесплатный архив песенных текстов, аккордов, табулатур и нот


Meters - Chicken Strut - таба, видео

Регистрация Запомнить меня
Войти через:  Facebook Google Twitter Vk Yandex Mail.ru

Meters - Chicken Strut - таба, видео

Печатать
Просмотров: 87
Уроки эстрадного вокала в Санкт-Петербурге
Title: Chicken Strut
Artist: Meters

transcribed by Pat Gannon 

this is only the beginning/chorus of the song, which didn't take me long to figure out.  im working on the solo, and as soon as i figure it out i'll post it.  the meters make some great music, it's too bad that not too many people know about em.

rhythm not shown...listen to the track and figure it out.

intro:

e|-----------------------------------------
B|-----------------------------------------
G|-----------------------------------------
D|-6--4--2--6-6--------6--4--2--6-6--4--2-2
A|--------------2--4-4---------------------
E|-----------------------------------------

e|-----------------------------------------
B|-----------------------------------------
G|-----------------------------------------
D|-6--4--2--6-6--------6--4--2--6-6--4--2-2
A|--------------2--4-4---------------------
E|-----------------------------------------

e|--------------------7-7-7-x-7-7-7-x-7-7-7-
B|-7/9------7/9--7-5--7-7-7-x-7-7-7-x-7-7-7-
G|-----11\9-----------7-7-7-x-7-7-7-x-7-7-7-
D|------------------------------------------
A|------------------------------------------
E|------------------------------------------

e|--------------------7-7-7-x-7-7-7-x-7-7-7-
B|-7/9------7/9--7-5--7-7-7-x-7-7-7-x-7-7-7-
G|-----11\9-----------7-7-7-x-7-7-7-x-7-7-7-
D|------------------------------------------
A|------------------------------------------
E|------------------------------------------

e|-5/7------5/7--5-4--7-7-7-x-7-7-7-x-7-7-7-
B|-----10/8-----------7-7-7-x-7-7-7-x-7-7-7-
G|--------------------7-7-7-x-7-7-7-x-7-7-7-
D|------------------------------------------
A|------------------------------------------
E|------------------------------------------

e|-5/7------5/7--5-4--7-7-7-x-7-7-7-x-7-7-7-
B|-----10/8-----------7-7-7-x-7-7-7-x-7-7-7-
G|--------------------7-7-7-x-7-7-7-x-7-7-7-
D|------------------------------------------
A|------------------------------------------
E|------------------------------------------

chorus:

e|-------------------------------------
B|-------------------------------------
G|-------------------------------------
D|-------------------------------------
A|-7--5--------5--7---7--5--------5--7-
E|-------5---5--------------5---5------

that's all i've got for now, and by the way, this is my own work.  questions or commments email at InsanoMan55@netscape.net
thanks.
     
Добавлено: 21.06.2013
Другие материалы по этой песне:
  • Аккорды и текст

Страница создана 21.06.2013
http://primanota.ru/meters/chicken-strut-chords.htm
Привет, Гость.
Предлагаем пройти революционный курс по гитаре.
Подарок от PrimaNota.Ru, забирай!