PrimaNota.ru - самый крупный в мире бесплатный архив песенных текстов, аккордов, табулатур и нот


Meters - Can You Do Without - бас-таба, видео

Регистрация Запомнить меня
Войти через:  Facebook Google Twitter Vk Yandex Mail.ru

Meters - Can You Do Without - бас-таба, видео

Печатать
Просмотров: 63
-----------------------------------------------------------------
The Meters - Can You Do Without?
-----------------------------------------------------------------

Tabbed By: Dennis Metin
e-mail: info@dmetin.com

Tuning: standard tuning

Main Riff (Intro/Verse)
G|--------8-6---6------------------------------------------------|
D|---6-6------8---8-66-4-4-4-8-6---------------------------------|
A|--6-6----------------------------------------------------------|
E|---------------------------------------------------------------|

Bridge 1
G|6-3-------3-6-3------6-3-------3-------------------------------|
D|----6-3-6-------6--------6-3-6---------------------------------|
A|---------------------------------8-6-4-------------------------|
E|---------------------------------------------------------------|

G|6-3-------3-6-6/8-8/10~----6-3-------3-------------------------|
D|----6-3-6----------------------6-3-6---------------------------|
A|---------------------------------------8-6-4-------------------|
E|---------------------------------------------------------------|

Bridge 2 
G|------6-8--6---8/10-8--------6-------6h8-----------------------|
D|--6h8--------8-----------6h8------6h6--------------------------|
A|6----------------------6-------6-------------------------------|
E|---------------------------------------------------------------|

G|------6-8--6---8/10-8--------6---------------------------------|
D|--6h8--------8-----------6h8-----------------------------------|
A|6----------------------6-------6-------------------------------|
E|---------------------------------------------------------------|

Main Riff
G|--------8-6---6------------------------------------------------|
D|---6-6------8---8-66-4-4-4-8-6---------------------------------|
A|--6-6----------------------------------------------------------|
E|---------------------------------------------------------------|



| / slide up
| \ slide down
| h hammer-on
| p pull-off
| ~ vibrato
| + harmonic
| x Mute note
Добавлено: 13.08.2013
Другие материалы по этой песне:
  • Аккорды и текст

Страница создана 13.08.2013
http://primanota.ru/meters/can-you-do-without-chords.htm
Привет, Гость.
Предлагаем пройти революционный курс по гитаре.
Подарок от PrimaNota.Ru, забирай!