PrimaNota.ru - самый крупный в мире бесплатный архив песенных текстов, аккордов, табулатур и нот


Meters - Cabbage Alley - аккорды и текст, видео

Регистрация Запомнить меня
Войти через:  Facebook Google Twitter Vk Yandex Mail.ru

Meters - Cabbage Alley - аккорды и текст, видео

Печатать
Просмотров: 81
Cabbage Alley
Meters
-------------------------------------------------------------------------------
                             CABBAGE ALLEY - The Meters
-------------------------------------------------------------------------------
Tabbed by: Audaciter
E-mail: audaciter@bellsouth.net

Tuning: Standard Tuning with Capo on 1st fret or not. 
Chords are relative to capo.

Great New Orleans 12 bar blues with funk! 
Medium heat and season with occasional 7ths & 9ths  ;)


    E    A   G#5   G5  F#5   B7   D    A7   E7

e|--0----0-------------------2----2----0----0----|
B|--0----1-------------------0----3----1----3----|
G|--1----1-------------------2----2----0----1----|
D|--2----1----6----5----4----1----0----1----0----|
A|--2----0----6----5----4----2---------0----2----|
E|--0---------4----3----2------------------------|



E
Hey now baby, hey now honey child

A             G#5   G5    F#5   E
Hey now baby, hey   now   honey child

B7            D       A     E      B7
Hey now baby, hey now honey child

E
Hey now baby, hey now honey child

A             G#5   G5    F#5   E
Hey now baby, hey   now   honey child

B7            D       A     E      B7
Hey now baby, hey now honey child


Solo Breaks with Drums & Congos 
Take a turn and have fun! 


E
Hey now baby, hey now honey child

A             G#5   G5    F#5   E
Hey now baby, hey   now   honey child

B7            D       A     E      B7
Hey now baby, hey now honey child

E
Hey now baby, hey now honey child

A             G#5   G5    F#5   E
Hey now baby, hey   now   honey child

B7            D       A     E      B7
Hey now baby, hey now honey child


Repeat!
Добавлено: 17.07.2015
Вам также может быть интересно:
Другие материалы по этой песне:
  • Аккорды и текст

Страница создана 17.07.2015
http://primanota.ru/meters/cabbage-alley-chords.htm
Привет, Гость.
Предлагаем пройти революционный курс по гитаре.
Подарок от PrimaNota.Ru, забирай!