PrimaNota.ru - самый крупный в мире бесплатный архив песенных текстов, аккордов, табулатур и нот


Meters - Aint No Use - бас-таба, видео

Регистрация Запомнить меня
Войти через:  Facebook Google Twitter Vk Yandex Mail.ru

Meters - Aint No Use - бас-таба, видео

Печатать
Просмотров: 95
Уроки эстрадного вокала в Санкт-Петербурге
-------------------------------------------------------------------------------
                             Ain't No use - The Meters
-------------------------------------------------------------------------------
Tabbed by: John Risky
E-mail:johnsheermanchase@yahoo.com

Intro guitar Dm Am G

                Intro
G|--------------------------------------|
D|-------------------7-5---5------------|
A|-----------------------8---8-5------5-|
E|-------------------------------8--5---|

        Verse
G|------------------------------------------------------|
D|-------3---------------3-------------------------5----|
A|-5---------5-3-------------5--3-------------5---------|
E|---------------5-----------------3--------------------|

        Breakdown
G|--------------------------------------------------|
D|------------------------------------3---------3---|
A|-0---3--5-----5-----3----5-3--5--3------5-------5-|
E|--------------------------------------------------|


G|--------------------------------------------------|
D|--------------------------------------------3-----|
A|-0---3--5-----5-----3----5-3-0-----------------5--|
E|-------------------------------1---3---1----------|

There's more, but I'm sure you can work it out.


************************************


************************************
Добавлено: 02.10.2013
Другие материалы по этой песне:
  • Аккорды и текст

Страница создана 02.10.2013
http://primanota.ru/meters/aint-no-use-chords.htm
Привет, Гость.
Предлагаем пройти революционный курс по гитаре.
Подарок от PrimaNota.Ru, забирай!