PrimaNota.ru - самый крупный в мире бесплатный архив песенных текстов, аккордов, табулатур и нот


Metallica - Wasted My Hate - таба, видео

Регистрация Запомнить меня
Войти через:  Facebook Google Twitter Vk Yandex Mail.ru

Metallica - Wasted My Hate - таба, видео

Печатать
Просмотров: 66
Уроки эстрадного вокала в Санкт-Петербурге
Tuning:E flat
This might not be 100% but it's the overall idea. Enjoy!
Intro:
Clean
E---0-0-5-7------------7------5-7---5v5v-0-3-5-0------------------------------------------------------
A------------5s7v7v7s5---5v5v-----5--------------0-0--------------------------------------------------
D-----------------------------------------------------------------------------------------------------
G-----------------------------------------------------------------------------------------------------
B-----------------------------------------------------------------------------------------------------
E-----------------------------------------------------------------------------------------------------

E---0-0-5-7------------7------5-7---5v5v-0-3-5-0------------------------------------------------------
A------------5s7v7v7s5---5v5v-----5--------------0-0--------------------------------------------------
D-----------------------------------------------------------------------------------------------------
G-----------------------------------------------------------------------------------------------------
B-----------------------------------------------------------------------------------------------------
E-----------------------------------------------------------------------------------------------------

E---0-0-5-7------------7------5-7---5v5v-0-3-5-0------------------------------------------------------
A------------5s7v7v7s5---5v5v-----5--------------0-0--------------------------------------------------
D-----------------------------------------------------------------------------------------------------
G-----------------------------------------------------------------------------------------------------
B-----------------------------------------------------------------------------------------------------
E-----------------------------------------------------------------------------------------------------

E---0-0-5-7------------7------5-7---5v5v-0-3-5-0------------------------------------------------------
A------------5s7v7v7s5---5v5v-----5--------------0-0--------------------------------------------------
D-----------------------------------------------------------------------------------------------------
G-----------------------------------------------------------------------------------------------------
B-----------------------------------------------------------------------------------------------------
E-----------------------------------------------------------------------------------------------------

Distortion:
E-----------------------------------------------------------------------------------------------------
A---5s7v-5s7v-5s7v-5s7v-7-7-7-7-----------------------------------------------------------------------
D---7s9v-7s9v-7s9v-7s9v-9-9-9-9-----------------------------------------------------------------------
G---7s9v-7s9v-7s9v-7s9v-9-9-9-9-----------------------------------------------------------------------
B-----------------------------------------------------------------------------------------------------
E-----------------------------------------------------------------------------------------------------

Main Riff:
E--0-0-0-0-0-0-0-0-0-0-0-5-0-5-7-6-5-0-5-0-5-0--5s3-0-3s5-3s5-0---------------------------------------
A--2-*-7-5-2-*-7-5-7-6-5-5-*-5-7-6-5---5-*-5----------5s7-5s7-2---------------------------------------
D-----------------------------------------------------5s7-5s7-----------------------------------------
G-----------------------------------------------------------------------------------------------------
B-----------------------------------------------------------------------------------------------------
E-----------------------------------------------------------------------------------------------------

E--0-0-0-0-0-0-0-0-0-0-0-5-0-5-7-6-5-0-5-0-5-0--5s3-0-3s5-3s5-0---------------------------------------
A--2-*-7-5-2-*-7-5-7-6-5-5-*-5-7-6-5---5-*-5----------5s7-5s7-2---------------------------------------
D-----------------------------------------------------5s7-5s7-----------------------------------------
G-----------------------------------------------------------------------------------------------------
B-----------------------------------------------------------------------------------------------------
E-----------------------------------------------------------------------------------------------------

E--0-0-0-0-0-0-0-0-0-0-0-5-0-5-7-6-5-0-5-0-5-0--5s3-0-3s5-3s5-0---------------------------------------
A--2-*-7-5-2-*-7-5-7-6-5-5-*-5-7-6-5---5-*-5----------5s7-5s7-2---------------------------------------
D-----------------------------------------------------5s7-5s7-----------------------------------------
G-----------------------------------------------------------------------------------------------------
B-----------------------------------------------------------------------------------------------------
E-----------------------------------------------------------------------------------------------------

E--0-0-0-0-0-0-0-0-0-0-0-5-0-5-7-6-5-0-5-0-5-0--5s3-0-3s5-3s5-0---------------------------------------
A--2-*-7-5-2-*-7-5-7-6-5-5-*-5-7-6-5---5-*-5----------5s7-5s7-2---------------------------------------
D-----------------------------------------------------5s7-5s7-----------------------------------------
G-----------------------------------------------------------------------------------------------------
B-----------------------------------------------------------------------------------------------------
E-----------------------------------------------------------------------------------------------------

Verse:
E-----------------------------------------------------------------------------------------------------
A---7-7-7-0-7--7--7--0-7-7-7-0-4-4-4-0-7-7-7-0---------0----------------------------------------------
D---9-9-9-0-10-10-10-0-9-9-9-0-6-6-6-0-9-9-9-0-7--7--7-0----------------------------------------------
G---9-9-9-0-10-10-10-0-9-9-9-0-6-6-6-0-9-9-9-0-9--9--9-0----------------------------------------------
B----------------------------------------------10-10-10-----------------------------------------------
E-----------------------------------------------------------------------------------------------------

Chorus:
E---0-0-5-7------------7------5-7---5v5v-0-3-5-0------------------------------------------------------
A------------5s7v7v7s5---5v5v-----5--------------0-0--------------------------------------------------
D-----------------------------------------------------------------------------------------------------
G-----------------------------------------------------------------------------------------------------
B-----------------------------------------------------------------------------------------------------
E-----------------------------------------------------------------------------------------------------

E---0-0-5-7------------7------5-7---5v5v-0-3-5-0------------------------------------------------------
A------------5s7v7v7s5---5v5v-----5--------------0-0--------------------------------------------------
D-----------------------------------------------------------------------------------------------------
G-----------------------------------------------------------------------------------------------------
B-----------------------------------------------------------------------------------------------------
E-----------------------------------------------------------------------------------------------------

E---0-0-5-7------------7------5-7---5v5v-0-3-5-0------------------------------------------------------
A------------5s7v7v7s5---5v5v-----5--------------0-0--------------------------------------------------
D-----------------------------------------------------------------------------------------------------
G-----------------------------------------------------------------------------------------------------
B-----------------------------------------------------------------------------------------------------
E-----------------------------------------------------------------------------------------------------

E---0-0-5-7------------7------5-7---5v5v-0-3-5-0------------------------------------------------------
A------------5s7v7v7s5---5v5v-----5--------------0-0--------------------------------------------------
D-----------------------------------------------------------------------------------------------------
G-----------------------------------------------------------------------------------------------------
B-----------------------------------------------------------------------------------------------------
E-----------------------------------------------------------------------------------------------------

Verse:
E-----------------------------------------------------------------------------------------------------
A---7-7-7-0-7--7--7--0-7-7-7-0-4-4-4-0-7-7-7-0---------0----------------------------------------------
D---9-9-9-0-10-10-10-0-9-9-9-0-6-6-6-0-9-9-9-0-7--7--7-0----------------------------------------------
G---9-9-9-0-10-10-10-0-9-9-9-0-6-6-6-0-9-9-9-0-9--9--9-0----------------------------------------------
B----------------------------------------------10-10-10-----------------------------------------------
E-----------------------------------------------------------------------------------------------------

Chorus:
E---0-0-5-7------------7------5-7---5v5v-0-3-5-0------------------------------------------------------
A------------5s7v7v7s5---5v5v-----5--------------0-0--------------------------------------------------
D-----------------------------------------------------------------------------------------------------
G-----------------------------------------------------------------------------------------------------
B-----------------------------------------------------------------------------------------------------
E-----------------------------------------------------------------------------------------------------

E---0-0-5-7------------7------5-7---5v5v-0-3-5-0------------------------------------------------------
A------------5s7v7v7s5---5v5v-----5--------------0-0--------------------------------------------------
D-----------------------------------------------------------------------------------------------------
G-----------------------------------------------------------------------------------------------------
B-----------------------------------------------------------------------------------------------------
E-----------------------------------------------------------------------------------------------------

E---0-0-5-7------------7------5-7---5v5v-0-3-5-0------------------------------------------------------
A------------5s7v7v7s5---5v5v-----5--------------0-0--------------------------------------------------
D-----------------------------------------------------------------------------------------------------
G-----------------------------------------------------------------------------------------------------
B-----------------------------------------------------------------------------------------------------
E-----------------------------------------------------------------------------------------------------

E---0-0-5-7------------7------5-7---5v5v-0-3-5-0------------------------------------------------------
A------------5s7v7v7s5---5v5v-----5--------------0-0--------------------------------------------------
D-----------------------------------------------------------------------------------------------------
G-----------------------------------------------------------------------------------------------------
B-----------------------------------------------------------------------------------------------------
E-----------------------------------------------------------------------------------------------------

Bridge
E--------------------------------8--8------------------------------------------------------------------
A---5s7v-5s7v-5s7v-5s7v-7-7-7-7--8--8--7---------------------------------------------------------------
D---7s9v-7s9v-7s9v-7s9v-9-9-9-9--10-10-9---------------------------------------------------------------
G---7s9v-7s9v-7s9v-7s9v-9-9-9-9--10-10-9---------------------------------------------------------------
B------------------------------------------------------------------------------------------------------
E------------------------------------------------------------------------------------------------------

Verse:
E-----------------------------------------------------------------------------------------------------
A---7-7-7-0-7--7--7--0-7-7-7-0-4-4-4-0-7-7-7-0---------0----------------------------------------------
D---9-9-9-0-10-10-10-0-9-9-9-0-6-6-6-0-9-9-9-0-7--7--7-0----------------------------------------------
G---9-9-9-0-10-10-10-0-9-9-9-0-6-6-6-0-9-9-9-0-9--9--9-0----------------------------------------------
B----------------------------------------------10-10-10-----------------------------------------------
E-----------------------------------------------------------------------------------------------------

Chorus:
E---0-0-5-7------------7------5-7---5v5v-0-3-5-0------------------------------------------------------
A------------5s7v7v7s5---5v5v-----5--------------0-0--------------------------------------------------
D-----------------------------------------------------------------------------------------------------
G-----------------------------------------------------------------------------------------------------
B-----------------------------------------------------------------------------------------------------
E-----------------------------------------------------------------------------------------------------

E---0-0-5-7------------7------5-7---5v5v-0-3-5-0------------------------------------------------------
A------------5s7v7v7s5---5v5v-----5--------------0-0--------------------------------------------------
D-----------------------------------------------------------------------------------------------------
G-----------------------------------------------------------------------------------------------------
B-----------------------------------------------------------------------------------------------------
E-----------------------------------------------------------------------------------------------------

E---0-0-5-7------------7------5-7---5v5v-0-3-5-0------------------------------------------------------
A------------5s7v7v7s5---5v5v-----5--------------0-0--------------------------------------------------
D-----------------------------------------------------------------------------------------------------
G-----------------------------------------------------------------------------------------------------
B-----------------------------------------------------------------------------------------------------
E-----------------------------------------------------------------------------------------------------

E---0-0-5-7------------7------5-7---5v5v-0-3-5-0------------------------------------------------------
A------------5s7v7v7s5---5v5v-----5--------------0-0--------------------------------------------------
D-----------------------------------------------------------------------------------------------------
G-----------------------------------------------------------------------------------------------------
B-----------------------------------------------------------------------------------------------------
E-----------------------------------------------------------------------------------------------------

End with:
E--------------------------------8--8------------------------------------------------------------------
A---5s7v-5s7v-5s7v-5s7v-7-7-7-7--8--8--7---------------------------------------------------------------
D---7s9v-7s9v-7s9v-7s9v-9-9-9-9--10-10-9---------------------------------------------------------------
G---7s9v-7s9v-7s9v-7s9v-9-9-9-9--10-10-9---------------------------------------------------------------
B------------------------------------------------------------------------------------------------------
E------------------------------------------------------------------------------------------------------

Tab Key:
S=slide
*=Palm Mute







Добавлено: 26.05.2016
Вам также может быть интересно:
Другие материалы по этой песне:
  • Аккорды и текст

Страница создана 26.05.2016
http://primanota.ru/metallica/wasted-my-hate-chords.htm
Привет, Гость.
Предлагаем пройти революционный курс по гитаре.
Подарок от PrimaNota.Ru, забирай!