PrimaNota.ru - самый крупный в мире бесплатный архив песенных текстов, аккордов, табулатур и нот


Metallica - Overkill - аккорды и текст, таба, видео

Регистрация Запомнить меня
Войти через:  Facebook Google Twitter Vk Yandex Mail.ru

Metallica - Overkill - аккорды и текст, таба, видео

Печатать
Просмотров: 245
Overkill
Metallica
		Overkill

 		tune all guitars down 1/2 step
 		 1)
		[Db-----9-9-9--9-9-9-9--9-9-9--9-9-9-9
		Ab-----7-7-7--7-7-7-7--7-7-7--7-7-7-7
		Eb--///0-0-0--0-0-0-0--0-0-0--0-0-0-0]
 		drum and bass intro into this
 		 2)
		[Gb--7--9/7--9/7--9/7-------------
		Db--5--7/5--7/5--7/5--7/5--7/5--5
		Ab--------------------5/3--5/3--3
		Eb-------------------------------]
 		verse
 		 3)
		[Gb------7--------7/9------7--------7/9
		Db------5--------5/7------5--------5/7
		Ab------------------------------------
		Eb--0-0----0-0-0------0-0----0-0-0----]
 		  pm...    .....      ...    .....
 		more verse
 		 4)
		[Gb---------------2
		Db-----4-2-4-----0
		Ab--4--2-0-2--4---
		Eb--2---------2---]
		Overkill
 		 4)
		[Db-----4--5--5-4-5-4--
		Ab--2--2--3--3-2-3-2-2
		Eb--0----------------0]
 		end riff (after 2nd double bass intro)
Добавлено: 26.01.2014
Другие материалы по этой песне:

Страница создана 24.02.2012
http://primanota.ru/metallica/overkill-chords.htm
Привет, Гость.
Предлагаем пройти революционный курс по гитаре.
Подарок от PrimaNota.Ru, забирай!