PrimaNota.ru - самый крупный в мире бесплатный архив песенных текстов, аккордов, табулатур и нот


Metallica - Master Of Puppets Bass - бас-таба, видео

Регистрация Запомнить меня
Войти через:  Facebook Google Twitter Vk Yandex Mail.ru

Metallica - Master Of Puppets Bass - бас-таба, видео

Печатать
Просмотров: 304
Уроки эстрадного вокала в Санкт-Петербурге
Master of puppets Solo bass cover

G-------0------7------9-11p9------12------7-----7------4-------------------------|
D-----2------7---7-----------12-9-------5---5------5-2------7-9-----7-9-----7-9-5|
A---2------5--------------------------3-----------------------------------6------|
E-0-------------------------------------------------------5-----5-7-----7--------|(X2)

G----16-12----14-11----------14-11----12-9----------|
D-14-------14-------12-12-12-------12------10--10-10|
A---------------------------------------------------|
E---------------------------------------------------|

G----12-9----11-9-11-8---------8----8--9-9-11-12|
D-10------10-----------10-9-10---10-------------|
A-----------------------------------------------|
E-----------------------------------------------|(X2)

G-9--9-11-12--11-12--14-12-14-12-16--9-11-9------------12-11--------------------------------------|
D-------------------------------------------10--12-12--------9-12--9------------------------------|
A---------------------------------------------------------------------10-12-12--12-10----10--7-5--|
E-------------------------------------------------------------------------------------12----------|

G-----------------------|
D-5--7-5-4---7-5-4-5-4--|
A----------5-----------3|
E-----------------------|

G----------------------------12-11--9-11-9-----14|
D-----------------0-2-4--9-7---------------9-7---|
A-0-2-3--2-3-5-3---------------------------------|
E------------------------------------------------|

G----16------------------------------------------------------------------------------------------------|
D-14----14-14-12-12-12-12-14-12--10-10-10-10---------10-10-10----10----------9-9-9----9--13-13-13----13|
A--------------------------------------------10-10------------12----12-12-12-------12-------------12---|
E------------------------------------------------------------------------------------------------------|(X2)

G-------0------7------9-11p9------12------7-----7------4-------------------------|
D-----2------7---7-----------12-9-------5---5------5-2------7-9-----7-9-----7-9-5|
A---2------5--------------------------3-----------------------------------6------|
E-0-------------------------------------------------------5-----5-7-----7--------|(X2)

G--|
D--|
A--|
E-0|
Добавлено: 26.05.2016
Другие материалы по этой песне:
  • Аккорды и текст

Страница создана 26.05.2016
http://primanota.ru/metallica/master-of-puppets-bass-chords.htm
Привет, Гость.
Предлагаем пройти революционный курс по гитаре.
Подарок от PrimaNota.Ru, забирай!