PrimaNota.ru - самый крупный в мире бесплатный архив песенных текстов, аккордов, табулатур и нот


Metallica - Loverman - аккорды и текст, таба, бас-таба, видео

Регистрация Запомнить меня
Войти через:  Facebook Google Twitter Vk Yandex Mail.ru

Metallica - Loverman - аккорды и текст, таба, бас-таба, видео

Печатать
Просмотров: 1194
Новый альбом группы 'Черный Кузнец' по культовому сериалу 'Сверхъестественное'!
Авторы музыки: Nick Cave
Авторы текста: Nick Cave
Loverman
Metallica
Intro:(Pretty hard)Moderate speed
G|-------------9--10--9/10/9--------------------------|
D|-9--10--12-----------------12--10/9-----------------|
A|----------------------------------------------------|
E|--------------------------------------12--10/12--10-|
 
G|-------------9--10--9/10/9---------------------|
D|-----10--12-----------------12--10/9--9--9-----|
A|-10-----------------------------------------12-|
E|-----------------------------------------------|

G|-------------9--10--9/10/9------------------|
D|-----10--12-----------------12--10/9------5-|
A|-10---------------------------------0--0----|
E|------------------------------------------3-|

G|----------9--10--9/10/9------------------------14-12---------|
D|----10-12----------------12--10/9----------10--------15-14---|
A|-10------------------------------------10--------------------|
E|-----------------------------------12----------------------0-|
                                                           hold

rest 3&3/4 measures(15 beats)
Fast Rock
G|---------------------------------------|
D|---------------------------------------|
A|---------------------------------------|
E|-3-R-2-R-3-R-2-R-2-R-3-R-2-R-3-R-2-R-1-|

SPEED PICK!(VERY FAST)
G|-------------------------------------------------------------|
D|-------------------------------------------------------------|
A|-------------------------------------------------------------|
E|-0000003-0000002-0000003-002-002-0000003-0000002-0000003-002-|
                                                    REPEAT ONCE
G|-----|
D|-----|
A|-----|
E|-001-|

G|--------------------------------|
D|--------------------------------|
A|--------------------------------|REPEAT TWICE
E|-0-3-50003-00-2-3-0-3-5000-2--2-|

ALMOST THE SAME AS ABOVE BUT THER ISN`T ANOTHER AT THE END:
G|----------------|
D|----------------|
A|----------------|
E|-0-3-50003-00-2-|

CHORUS:
G|-------------------------------------------------------------|
D|-------------------------------------------------------------|
A|-------1-2-1-1-11111111111111-------1-2--1--1-11111111111111-|
E|-0-3-0------------------------0-3-0--------------------------|
 ...Fight fire w/ fire               Ending is near

G|--------------------------------------------------------|
D|--------------------------------------------------------|
A|----------1--2--1--1-11111111111111----------1--2--1--1-|
E|-0--3--0----------------------------0--3--0-------------|
Fight fire w/ fire                   Bursting w/ fear...

G|---------------------------------------5----------------|
D|---------------------------------3/5/7----7--5----------|
A|-1--R---5--3--2--0------0--2--3-----------------2-----0-|
E|---------------------3-----------------------------3----|
                 hold 1 1/2 measures

Guitar Solo
G|-----------------|
D|-----------------|
A|-----------------|Repeat this line 2 times
E|-0-00-00-0-00-00-|

G|-------------------------------------------------------------|
D|-------------------------------------------------------------|
A|-----------------------0-00-00-0-00-00-0-00-00---------------|
E|0-00-00-0-00-00-0-00-00-----------------------3-33-33-3-33-33|

G|---------------------------------|
D|---------------------------------|
A|---------------------------------|repeat last 2 lines 2xs
E|-2-22-22-2-22-22-0-00-00-0-00-00-|

G|-------------------------------------------------|
D|-------------------------------------------------|
A|-------------------------0-00-00-0-00-00-0-00-00-|
E|-0-00-00-0-00-00-0-00-00-------------------------|

G|---------------------------------|
D|---------------------------------|
A|---------------------------------|
E|-3-33-33-3-33-33-2-22-22-2-22-22-|

G|-------------------------------------------------|
D|-------------------------------------------------|
A|-------------------------------------------------| repeat last
E|-0-2-3-0-2-3-0-2-3-0-2-3-0-2-3-0-2-3-0-2-3-0-2-3-| 2 lines

G|---|
D|---|
A|---|
E|-0-|
 hold for 4 measures

rest 8 measures


G|------------------|
D|------------------|
A|-1-11111111111111-|
E|------------------|

G|-------------|
D|-------------|
A|-------1-2-1-| 16 times
E|-0-3-0-------|

G|----------------------------------------|
D|----------------------------------------|
A|-1-R----------------7-7-7-7--7-7-7-7--7-|
E|-----0----------------------------------|
     hold 1 measure
Добавлено: 20.01.2014
Другие материалы по этой песне:

Страница создана 22.02.2012
http://primanota.ru/metallica/loverman-chords.htm
Привет, Гость.
Предлагаем пройти революционный курс по гитаре.
Подарок от PrimaNota.Ru, забирай!