PrimaNota.ru - самый крупный в мире бесплатный архив песенных текстов, аккордов, табулатур и нот


Metallica - Load (ver 2) (album) - бас-таба, видео

Регистрация Запомнить меня
Войти через:  Facebook Google Twitter Vk Yandex Mail.ru

Metallica - Load (ver 2) (album) - бас-таба, видео

Печатать
Просмотров: 186
Уроки эстрадного вокала в Санкт-Петербурге
This may not be one of Metallica's most popular albums, but it is still fun to play on bass.

Relatively easy and straight forward. There are a ton of variations (especially on Outlaw Torn) that I
didn't include because I didn't think they were entirely necessary.

Whole album is tuned down a half step to Eb.





Metallica-Ain't My Bitch

Intro
|-----------------|-----------------|-----------------|-----------------|2x this row
|-----------------|-----------------|-----------------|-----------------|
|-R---------------|-----------------|-R---------------|-----------------|
|-------------0-0-|---0-3-------0-0-|-----------------|-----------------|

|-----------------|-----------------||
|-----------------|-----------------||
|-----------------|---------------R-||
|-------------0-0-|---0-3-------0---||

Riff 1
|-----------------|-----------------|-----------------|-----------------|
|-----------------|-----------------|-----------------|-----------------|
|-----------------|-----------------|-----------------|-----------------|
|-0-0-0-0-0-0-0-00|-0-0-0-0-0-0-0-00|-0-0-0-0-0-0-0-0-|---0-3-------5-3-|

|-----------------|-----------------|-----------------|-----------------|
|-----------------|-----------------|-----------------|-----------------|
|-----------------|-----------------|-----------------|-----------0-2/5-|
|-0-0-0-0-0-0-0-00|-0-0-0-0-0-0-0-00|-0-0-0-0-0-0-0-0-|---0-3-----------|

|-----------------|-----------------|-----------------|-----------------|
|-----------------|-----------------|-----------------|-----------------|
|-7-7-7-7-7-777-7-|-7-7-7-7-7-7-7-7-|-7-7-7-7-7-7-7---|-7---------------|
|-----------------|-----------------|---------------0-|---0-3---3---5-3-|

|-----------------|-----------------|-----------------|-----------------||
|-----------------|-----------------|-----------------|-----------------||
|-----7---7---7---|-----7---7---7---|---7-7-7-7-7-7---|-7---------------||
|-0-0---0---0---00|-0-0---0---0---0-|-0-------------0-|---0-3-3-3/7-5-3-||

Riff 1a
|-----------------|-----------------|-----------------|-----------------|
|-----------------|-----------------|-----------------|-----------------|
|-----------------|-----------------|-----------------|-----------------|
|-0-0-0-0-0-0-0-00|-0-0-0-0-0-0-0-00|-0-0-0-0-0-0-0-0-|---0-3-------5-3-|

|-----------------|-----------------|-----------------|-----------------|
|-----------------|-----------------|-----------------|-----------------|
|-----------------|-----------------|-----------------|-----------------|
|-0-0-0-0-0-0-0-00|-0-0-0-0-0-0-0-00|-0-0-0-0-0-0-0-0-|---0-3---3-3-5-3-|

|-----------------|-----------------|-----------------|-----------------|
|-----------------|-----------------|-----------------|-----------------|
|-----------------|-----------------|-----------------|-----------------|
|-5-5-5-5-5-5-5-33|-5-5-5-555-5-5-33|-5-5-5-5-5-5-0-5-|---5-3-------3\--|

Riff 2
|-----------------|-----------------|-----------------|-----------------|
|-----------------|-----------------|-----------------|-----------------|
|-----------------|-----------------|-----------------|57---------------|
|-0-------------0-|-0-------------0-|-0-------------0-|-0-----------7\--|

|-----------------|-----------------|-----------------|-----------------|
|-----------------|-----------------|-----------------|-----------------|
|-----------------|-----------------|-----------------|-----------------|
|-0-0-0-0-0-0-0-0-|-0-0-0-0-0-0-0-0-|-7---7-7-7-7-7-00|-5-5-5-5-5---5-00|

|-----------------|-----------------|-----------------|-----------------|
|-----------------|-----------------|-----------------|-----------------|
|-----------------|-----------------|-----------------|-----------------|
|-3-3-3-3-3-3-2-1-|-0000300000300030|-0000300000300030|-7---7-7-7-7-7-7-|

|-----------------|-----------------|-----------------||
|-----------------|-----------------|-----------------||
|-----------------|-----------------|---R-------------||
|-5-5-5-5-5-5-5-5-|-3-3-3-3-3-3-2-1-|-0---------------||
Riff 1b
|-----------------|-----------------|-----------------|-----------------|
|-----------------|-----------------|-----------------|-----------------|
|-----------------|-----------------|-----------------|-----------0-2/5-|
|-0-0-0-0-0-0-0-00|-0-0-0-000-0-0-0-|-0-0-0-0-0-0-0-0-|---0-3-----------|

|-----------------|-----------------|-----------------|-----------------||
|-----------------|-----------------|-----------------|-----------------||
|-7-7-7-777-7-7-77|-7---7---7---7---|-------7-7-7-----|-7---------------||
|-----------------|---0---0---0---0-|-0-0-0-------0-0-|---0-3----/7-5-3-||

Play Riff 1a

Break
|-----------------|-----------------|-----------------|-----------------|
|-----------------|-----------------|-----------------|-----------------|
|-R---------------|-----------------|-----------------|---------------R-|
|-----------------|-----------------|-------------0-0-|---0-3-------0---|

|-----------------|-----------------|-----------------|-----------------|
|-----------------|-----------------|-----------------|-----------------|
|-R---------------|-----------------|-----------------|-----------------|
|-----------------|-----------------|-----------------|-----------------|

|-----------------|-----------------|-----------------|-----------------|
|-----------------|-----------------|-----------------|-----------------|
|-----------------|-----------------|-----------------|-----------------|
|-0-0-0-0-0-0-0-0-|-0-0-0-0-0-0-0-0-|-0-0-0-0-0-0-0-0-|-0-0-0-0-0-0-0-0-|

|-----------------|-----------------|-----------------|-----------------|
|-----------------|-----------------|-----------------|-----------------|
|-----7-----------|-----------------|-----------------|-----------------|
|-0-0-0---0-0-0-0-|-0-0-0-0-0-0-0-0-|-0-0-0-0-0-0-0-0-|-0-0-3---3---5-3-|

|-----------------|-----------------|-----------------|-----------------||
|-----------------|-----------------|-----------------|-----------------||
|-----7-------7---|-----7-------7---|---7-----7---7---|-7---7-7-7-5-----||
|-0-0---000-0---0-|-0-0---000-0---0-|-0---0-0---0---0-|---00--------7-5-||

Solo
|-----------------|-----------------|-----------------|-----------------|
|-----4-------4---|-----4-------4---|-----4-------4---|-----------------|
|-----------------|-----------------|-----------------|-----------------|
|-2-2---222-2---2-|-2-2---222-2---2-|-2-2---222-2---2-|-2-2-5-5-5-5-7-0-|

|-----------------|-----------------|-----------------|-----------------|
|-----4---4---4---|-----4-444---4---|-----4-444---4---|-----------------|
|-----------------|-----------------|-----------------|-----------------|
|-2-2---22--2---2-|-2-2-------2---2-|-2-2-------2---2-|-2-2-5-5-5-5-7-0-|

|-----------------|-----------------|-----------------|-----------------|
|-----6---6-------|-----6---6-------|-----6---6-------|-----------------|
|-----------------|-----------------|-----------------|-----------------|
|-4-4---44--4-4-4-|-4-4---44--4-4-4-|-4-4---44--4-4-44|-4-447---7---9-7-|

|-----------------|-----------------|-----------------|-----------------||
|-----6---6-------|-----6---6-------|-----6---6-------|-----------------||
|-----------------|-----------------|-----------------|-----------------||
|-4-4---44--4-4-4-|-4-4---44--4-4-4-|-4-4---44--4-4-4-|-7---7---7---7\\-||

Lead In
|-----|-----|-----|-----|-----|-----|-----|-----------------||
|-----|-----|-----|-----|-----|-----|-----|-----------------||
|-----|-----|-----|-----|-----|-----|-----|-------------7\--||
|-0---|(0)--|(0)--|(0)--|(0)--|(0)--|(0)--|(0)--------------||

Play Riff 1a

Riff 2a
|-----------------|-----------------|-----------------|-----------------|
|-----------------|-----------------|-----------------|-----------------|
|-----------------|-----------------|-----------------|57-----------7-7-|
|-0-------------0-|-0-------------0-|-0-------------0-|-0---------0-----|

|-----------------|-----------------|-----------------|-----------------|
|-----------------|-----------------|---------4-------|---------3---3---|
|-----------------|-----5-5---------|-----------------|-----------------|
|-3-------------3-|-5/7---------7---|-2---2-2-----2---|-1---1-1---1---1-|

|-----------------|-----------------||
|-----------------|-----------------||
|-----------------|-----------------||
|-0-0-0-0-0-0-0-0-|-0-0-0-0-0-0-0-0-||

Riff 3
|-----------------|-----------------|-----------------|
|-----------------|-----------------|-----------------|
|-----------------|-----------------|-----------------|
|-7---7-7-7-7-7-00|-5-5-5-5-5---5-00|-3-3-3-3-3-3-2-1-|

|-----------------|-----------------||4x
|-----------------|-----------------||
|-----------------|-----------------|| this row 2x last time
|-0000300000300030|-0000300000300030||

Riff 3a
|-----------------|-----------------|-----------------|-----------------|3x this row
|-----------------|-----------------|-----------------|-----------------|
|-----------------|-----------------|-----------------|-----------------|
|-7---7-7-7-7-7-00|-5-5-5-5-5---5-00|-3-3-3-3-3-3-2-1-|-0-0-0-0-0-0-0-0-|

|-----------------|-----------------|-----------------|-----------------|
|-----------------|-----------------|-----------------|-----------------|
|-----------------|-----------------|-----------------|-----------------|
|-7---7-7-7-7-7-00|-5-5-5-5-5---5-00|-3-3-3-3-3-3-2-1-|-0-3-2-1-0-3-2-1-|

|-----------------||
|-----------------||
|---------R-------||
|-0-3-2-1---------||

End
|-----------------|-----------------|-----------------|-----------------||
|-----------------|-----------------|-----------------|-----------------||
|-R---------------|-----------------|-----------------|-----------------||
|-----------------|-----------------|-------------0-0-|---0-3-------0---||




-----------------------------------------------------------------------------------------------------------




Metallica-2x4

Drums

Intro
|-------------|-------------|-------------|-------------|
|-------------|-------------|-------------|-------------|
|-------------|-------------|-------------|-------------|
|-0---0-3-5-6-|(6)--0-3-5-6-|(6)--0-3-5-0-|(0)--0-3-5-0-|

Riff 1
|-------------|-------------|-------------|-------------|3x this row
|-------------|-------------|-------------|-------------|
|-------------|-------------|-------------|-------------|
|(0)--0-3-5-6-|(6)--0-3-5-6-|(6)--0-3-5-0-|(0)--0-3-5-0-|

|-------------||
|-------------||
|-------------||
|-0-0-0-0-0-0-||

Riff 2
|-------------|-------------|-------------|-------------||2x
|-------------|-------------|-------------|-------------||
|-------------|-------------|-------------|-------------||
|-0---0-0---0-|-0---0-0---0-|-0---0-0---0-|-0---0-3-5-3-||

Riff 3
|-------------|-------------|-------------|-------------||4x
|-------------|-------------|-------------|-------------||
|-------------|---------R---|-------------|-------------||
|-0---0-3---0-|-5---0-------|-6-5---3-----|-6-5---3-----||

Play Riff 2 - 2x
Play Riff 3 - 2x

Lead In
|-------------|-------------|-------------|-------------||
|-------------|-------------|-------------|-------------||
|-------------|-------------|-------------|-------------||
|-0---0-3-5-6-|(6)--6-6-----|-6-0---3-5-0-|-0-0-0-0-0-0-||

Riff 4
|-------------|-------------|-------------|-------------||2x
|-------------|-------------|-------------|-------------||
|-------------|-------------|-------------|-------------||
|-3-5-6-----6-|-6---6-6---0-|-3-5-0-----0-|-0---0-0---0-||

Play Riff 1 - 2x

Riff 5
|-------------|-------------|-------------|-------------|
|-------------|-------------|-------------|-------------|
|-------------|-------------|-------------|-------------|
|-0---0-0---0-|-0---0-0-----|-0---0-3---3-|-3-----3-----|

|-------------|-------------|-------------|-------------||
|-------------|-------------|-------------|-------------||
|-------------|-------------|-------------|-------------||
|-3---3-5---5-|-5-----5-----|-5---5-3---0-|-3-----3-----||

Play Riff 1 - 2x

Play Riff 2 - 2x
Play Riff 3 - 4x
Play Lead In
Play Riff 4 - 2x
Play Riff 1 - 2x
Play Riff 5
Play Riff 1 - 2x
Play Riff 2 - 4x

Riff 6
|-------------|-------------|-------------|-------------|
|-------------|-------------|-------------|-------------|
|-------------|-------------|-------------|-------------|
|-0-----0-----|-0-----0---0-|-3-----3-----|-3-----3---3-|

|-------------|-------------|-------------|----|-------------||
|-------------|-------------|-------------|-3x-|-------------||
|-------------|-------------|-------------|----|-------------||
|-5-----5-----|-5-----5---5-|-1-1-1-1-1-1-|----|-1---1---1---||

Solo
|-------------|-------------|-------------|-------------|
|-------------|-------------|-------------|-------------|
|-------------|-------------|-------------|-------------|
|-0-----------|-0-------0---|-3-----3---3-|-3---3-3---3-|

|-------------|-------------|-------------|-------------|
|-------------|-------------|-------------|-------------|
|-------------|-------------|-------------|-------------|
|-5-----5---5-|-5---5-5---5-|-3---3-3---3-|-3---3-0---3-|

|-------------|-------------|-------------|-------------|
|-------------|-------------|-------------|-------------|
|-------------|-------------|-------------|-------------|
|-0-----0---0-|-0---0-0---0-|-3-----3---3-|-3---3-3---3-|

|-------------|-------------|-------------|-------------|
|-------------|-------------|-------5-----|-5-----------|
|-------------|-------------|-------------|-------------|
|-5-----5---5-|-5---5-5---5-|-3---3-----3-|-----0-3-5-3-|

|-------------|-------------|-------------|-------------|
|-------------|-------------|-------------|-------------|
|-------------|-------------|---------R---|-------------|
|-0-----0---0-|-0-----0---0-|-3---0-3-----|-----3-0-1-3-|

|-------------|-------------|-------------|-------------|
|-------------|-------------|-------------|-------------|
|-------------|-------------|-------------|-------------|
|-5---5-5-----|-5-----5-3-0-|-3---3---3---|-3---3---3---|

|-------------|-------------|-------------|-------------|
|-------------|-------------|-------------|-------------|
|-------------|-------------|---------R---|-------------|
|-0---0-0-0-0-|-0---0-0---0-|-3---0-3-----|-----3-0-1-3-|

|-------------|-------------|-------------|-------------|
|-------------|-------------|-------------|-------------|
|-------------|-------------|-------------|-------------|
|-5---5-5-----|-5-----5-3-0-|-3---3-3-3-3-|-3-3-3-3-3-3-|

|-------------|-------------|-------------|-------------|
|-------------|-------------|-------------|-------------|
|-------------|-2---0-------|-----------2-|-2---0-------|
|-0-----0---0-|-------3---0-|-3---3-3-----|-------3---0-|

|-------------|-------------|-------------|-------------|
|-------------|-------------|-------------|-------------|
|-0---0-0---3-|-2---0-------|-------------|-------------|
|-------------|-------3-2-0-|-3-----3---3-|-3-5-3-5-5-3-|

|-------------|-------------|-------------|-------------|
|-------------|-------------|-------------|-------------|
|-------------|-2---0-------|-----------2-|-2---0-------|
|-0-----0---0-|-------3---0-|-3-----3-----|-------3-0-3-|

|-------------|-------------|-------------|-------------|
|-------------|-------------|-------------|-------------|
|-0-----0---3-|-2---0-------|-------------|-3-3-2-2-----|
|-------------|-------3-2-0-|-3---3---3---|---------3-3-|

|-------------|-------------|-------------|-------------|
|-------------|-------------|-------------|-------------|
|-------------|-------------|-------------|-------------|
|-0-----0---0-|-0-----0-0-0-|-3-----3-3-3-|-3---1-0-1-3-|

|-------------|-------------|-------------|-------------|
|-------------|-------------|-----------5-|-----5-------|
|-------------|-------------|-------------|-------------|
|-5-----5---5-|-5---5-5-3-3-|-3-----3-----|-3-----3-2-1-|

|-------------|-------------|-------------|-------------|
|-------------|-------------|-------------|-------------|
|-------------|-------------|-------------|-------------|
|-0-----0---0-|-0---0-0-1-2-|-3-----3---3-|-3-----3-----|

|-------------|-------------|-------------|-------------|
|-------------|-------------|-------------|-------------|
|-------------|-------------|-------------|-------------|
|-5---5-5---5-|-5---5-5---3-|-3-3-3-3-0-0-|-3-3-3-3-0-0-|

|-------------||
|-------------||
|---R---------||
|-3-----------||

Play Intro
Play Riff 1 - 6x
Play Riff 5
Play Riff 1 - 2x

End
|-------------|-------------|-------------|-------------|
|-------------|-------------|-------5-----|-5-----5-----|
|-------------|-------------|-------------|-------------|
|-0-----0-----|-0---0-0---0-|-3---------3-|-----3-----3-|

|-------------|-------------|-------------|----|-------------|-----||
|-------------|-------------|-------------|-3x-|-------------|-----||
|-------------|-------------|-------------|----|-------------|-----||
|-5-----5-----|-5---5-5-----|-1-1-1-1-1-1-|----|-1---1---1---|-0---||




-----------------------------------------------------------------------------------------------------------




Metallica-The House That Jack Built

Rest 4 Bars

Intro
|-----------------|-----------------|--|--|-----------------|
|-----------------|-----------------|-7x--|-----------------|
|-----------------|-----------------|--|--|-----------------|
|-1-----3---------|(3)--------------|--|--|-1-1-1-1-1-1-1-0-|

|-----------------|-----------------|-----------------|-----------------||
|-----------------|-----------------|-----------------|-----------------||
|-----------------|-----------------|-----------------|-----------------||
|(0)------------0-|(0)------------0-|(0)------------1-|-------3---1---0-||

Riff 1
|-----------------|-----------------|-----------------|-----------------||2x
|-----------------|-----------------|-----------------|-----------------||
|---------R---R---|---------R---R---|---------R---R---|-----------------||
|---0-310---0---0-|---0-310---0---0-|---0-310---0---1-|-------3---1---0-||

Riff 2
|-----------------|-----------------|-----------------|-----------------||4x
|-----------------|-----------------|-----------------|-----------------||
|-----------------|-----------------|-----------------|-----------------||
|-660-0-660-0-00-0|-660-0-660-0-00-0|-660-0-660-0-00-0|-0222233335555666||

Riff 3
|-----------------|-----------------||4x
|-----------------|-----------------||
|---3-----5-------|(5)--------------||
|-1---1-3---3-----|(3)--------------||

Play Riff 2 - 4x

Riff 4
|-------------|-------------|-------------|-------------|
|-------------|-------------|-3-3-3-5-5-5-|-------------|
|-------------|-3-3-3-5-5-5-|-------------|-3-3-5---5---|
|-1-1-1-3-3-3-|-------------|-------------|-------------|

|-------------|-------------|-------------|-------------|-------------||
|-------------|-------------|-3-3-3-5-5-5-|-------------|-------------||
|-------------|-3-3-3-5-5-5-|-------------|-1---1-------|-------------||
|-1-1-1-3-3-3-|-------------|-------------|-------------|-----------0-||

Play Riff 1
Play Riff 4
Play Riff 1 - 2x (hold last note 4 more bars)
Play Riff 2 - 2x
Play Riff 3 - 4x

Let The Show Begin
|-------------|-------------|-------------|-------------||
|-------------|-------------|-3-3-3-5-5-5-|-------------||
|-------------|-3-3-3-5-5-5-|-------------|-3-3-5---5---||
|-1-1-1-3-3-3-|-------------|-------------|-------------||

Play Riff 4 - 2x (first time without last bar)
Play Riff 1

Outro  [slow down and let last note ring]
|-----------------|-----------------|-----------------|-----------------|
|-----------------|-----------------|-----------------|-----------------|
|---------R---R---|-----------------|---------R---R---|-----------------|
|---0-310---0---1-|-------3---1---0-|---0-310---0---1-|-------3---1---0-|

|-----------------|-----------------|-----------------|-----------------|
|-----------------|-----------------|-----------------|-----------------|
|---------R---R---|-----------------|---------R---R---|-----------------|
|---0-310---0---1-|-------3---1---0-|---0-310---0---1-|-------3---1---1-|

|-----------------|-----------------|-----------------|-----------------||
|-----------------|-----------------|-----------------|-----------------||
|-----------------|-----------------|-----------------|-----------------||
|(1)----3---1---1-|(1)----3---1---1-|(1)----3---1-----|(1)------0-------||




-----------------------------------------------------------------------------------------------------------




Metallica-Until It Sleeps

Intro
|---|-----------------|-----------------|-----------------|-----------------||
|---|-7-------------7/|-10----9---------|-7-------------7/|-10--------------||
|-7-|-----------------|---------------7-|-----------------|-------8-------7-||
|---|-----------------|-----------------|-----------------|-----------------||

Riff 1
|-----------------|-----------------|-----------------|-----------------|
|-----------------|-----------------|-7-------------7/|-10----9---------|
|-0---------------|(0)------------7-|-----------------|---------------7-|
|-----------------|-----------------|-----------------|-----------------|

|-----------------|-----------------|-----------------|-----------------||
|-7---------------|(7)--------------|-7-------------7/|-10--------------||
|-0---------------|(0)------------7-|-----------------|-------8---------||
|-----------------|-----------------|-----------------|-----------3-3-1-||

Riff 2
|-----------------|-----------------|-----------------|-----------------|
|-----------------|-----------------|-----------------|-----------------|
|-----------------|-----------------|-----------------|-------3---3-320-|
|-5-5-5-5-5-5---3-|-3-3-3-1---1-1-3-|-5-5-5-5-5-5---3-|---3-3----------3|

|-----------------|-----------------|-----------------|-----------------||
|-----------------|-----------------|-----------------|-----------------||
|-----------------|---3-------------|-----------------|-------2---3---7-||
|-5-5-5-5-5-5---3-|-3---3-1---1-1-3-|-5-5-5-5-5-5---3-|---3-3-----------||

Riff 3
|-----------------|-----------------|-----------------|-----------------||
|-7-------------7/|-10----9---------|-7-------------7/|-10--------------||
|-0---------------|---------------7-|-----------------|-------8-------7-||
|-----------------|-----------------|-----------------|-----------------||

Play Riff 1

Riff 2a
|-----------------|-----------------|-----------------|-----------------|
|-----------------|-----------------|-----------------|-----------------|
|-----------------|-----------------|-----------------|-------3---3-320-|
|-5-5-5-5-5-5---3-|-3-3-3-1---1-1-3-|-5-5-5-5-5-5---3-|---3-3----------3|

|-----------------|-----------------|-----------------|-----------------||
|-----------------|-----------------|-----------------|-----------------||
|-----------------|---3-------------|-----------------|-------3-----7---||
|-5-5-5-5-5-5---3-|-3---3-1---1-1-3-|-5-5-5-555-5-553-|-3-3-3-----7---7-||

Riff 4
|-------------|-------------|-------------|-------------|2x this row
|-------------|-----------57|-------------|-------------|
|-7---7---7---|---5---6-----|-7\5/7-------|---5---6---7-|
|-0---0-0-0-0-|-0-0---0-----|-0-----0-5-0-|-0-0-0-0-0-0-|

|-------------|-------------|-------------|-------------|
|-------------|-------------|-------------|-------------|
|-7---------57|---5---6---7-|-7\5/7-------|---5---6---7-|
|-0---0-0-57--|-0-0-0-0-0-0-|-0-----0-0-0-|-0-0-0-0-0-0-|

|-------------|-------------|-------------|-------------||
|-------------|-------------|-------------|---5---7---7-||
|-7---------57|---5---6---7-|-7-----------|---7---7---7-||
|-0---0-0-57--|-0-0-0-0-0-0-|-0-0-0-0-0-0-|-0---0---0---||

Play Riff 3
Play Riff 1

Riff 2b
|-----------------|-----------------|-----------------|-----------------|
|-----------------|-----------------|-----------------|-----------------|
|-----------------|-----------------|-----------------|-------3---3-320-|
|-5-5-5-5-5-5---3-|-3-3-3-1---1-1-3-|-5-5-5-5-5-5---3-|---3-3----------3|

|-----------------|-----------------|-----------------|-----------------||
|-----------------|-----------------|-----------------|-----------------||
|-----------------|---3-------------|-----------------|-----------------||
|-5-5-5-5-5-5---3-|-3---3-1---1-1-3-|-5-55555555555-53|---3333331-0-12\\||

Play Riff 4

Riff 3a
|-----------------|-----------------|-----------------|-----------12----|
|-7---------------|-10----9---------|-----------------|-----1412------14|
|-------------1012|---------------7-|-0---------------|(0)--------------|
|-----------------|-----------------|-----------------|-----------------|

|-----------------|-----------------|-----------------|-----------------|
|---------------7/|-10----9-----7---|-----------------|-----------------|
|-0---------------|---------------7-|-0---------------|(0)--------------|
|-----------------|-----------------|-----------------|-------------3-3-|

|-----------------|-----------------|-----------------|-----------------|
|-----------------|-----------------|-----------------|-----------------|
|-----------------|-----------------|-----------------|-----------------|
|-3/--8-----------|(8)----------3---|-3/--8-----------|(8)----------3---|

|-----------------|-----------------|-----------------|-----------------||
|-----------------|-----------------|-----------------|-----------------||
|-----------------|-----------------|-----------------|-----------------||
|-3/--8-----------|(8)----------8---|-5-5-5-5-5-5-5-5-|-5-5-5-5-5-3-3-1-||

Riff 2c
|-----------------|-----------------|-----------------|-----------------|
|-----------------|-----------------|-----------------|-----------------|
|-----------------|---8-0-----------|-----------------|-------3---3-320-|
|-5-5-5-5-5-5-5-5-|-8-----1---1-1-3-|-5-5-5-5-5-5---3-|---3-3----------3|

|-----------------|-----------------|-----------------|-----------------||
|-----------------|-----------------|-----------------|-----------------||
|-----------------|---3-------------|-----------------|---3---3-3-------||
|-5-5-5-5-5-5---3-|-----3-1---1-1-3-|-5-5555555-55555-|-3---3-----0-12\\||

Play Riff 2
Play Riff 3 - 2x

End
|-----------------||
|-----------------||
|-0---------------||
|-----------------||




-----------------------------------------------------------------------------------------------------------




Metallica-King Nothing

Rest for a bit

Riff 1
|-----------------|-----------------||8x
|-------------5---|-----5-----8---7-||
|---5-6-7---57--7-|---57--7---------||
|-0-------0-------|-0-------6---5---||

Riff 2
|-----------------|-----------------||4x
|-----------------|-----------------||
|---5-6-7-7\------|-----------------||
|-0---------0-3-0-|-0-0-3-0-6-6-5-5-||

Riff 3
|-----------------|-----------------|-----------------|-----------------||2x
|-----------------|-----------------|-----------------|-----------------||
|-----------------|-----------------|-----------------|-----------------||
|-1-0-3-0-6-6-5-0-|-1-0-3-0-6-6-5-0-|-1-0-3-0-6-6-5-0-|-1-0-3-0-6-6-5-3-||

Riff 4
|-----------------|-----------------|-----------------|-----------------|
|---------7-------|---7-------------|---------7-------|---7-------------|
|-0-----0---------|-0---7-6-----6666|-0-----0---------|-0---7-6---------|
|-----------------|-----------------|-----------------|-----------------|

Riff 5
|-----------------|-----------------|-----------------|-----------------|
|-----------------|-----------------|-----------------|---7-6-5-------5-|
|-----------------|-3-3-3-3-3-3-3-3-|-2---2---2-2-2-2-|-0---------5-7---|
|-0---0---0-0-0-0-|-----------------|-----------------|-----------------|

|-----------------|-----------------|-----------------|-----------------|
|-----------------|-----------------|-----------------|-----------------|
|-----------------|-----------------|-----------------|-----------------|
|-0---0---0-0-0-0-|-3---3---3-3-5-3-|-2---2---2-2-3-2-|-1-1-1-1-1-1-1-1-|

|-----------------||
|-----------------||
|-----R-----------||
|-1---------------||

Play Riff 2 - 4x
Play Riff 3 - 2x
Play Riff 4
Play Riff 5
Play Riff 2 - 4x
Play Riff 4
Play Riff 3

Lead In
|-----------------||
|-----------------||
|-----------------||
|-0---------------||

Play Riff 1 - 8x
Play Riff 2 - 4x
Play Riff 5

Lead In
|-----------------|-----------------|-----------------|-----------------||
|-----------------|-----------------|-----------------|-----------------||
|-----------------|-----------------|-----------------|-----------------||
|-0---------------|(0)--------------|(0)--------------|(0)--------------||

Play Riff 2 - 4x

End
|-----------------||
|-----------------||
|-----------------||
|-0---------------||




-----------------------------------------------------------------------------------------------------------




Metallica-Hero Of The Day

Rest a bit

Intro
|---|-----------------||
|---|-----------------||
|-7-|-7-7-7-7-7-7-7-7-||
|---|-----------------||

Riff 1
|-----------------|-----------------|-----------------|-----------------||2x
|-7---7-7/9-9---9/|-1111--11121212--|-----------------|-----------------||
|---0---0-0---0-0-|-0---0-0-0---0-0-|-----------------|-----------------||
|-----------------|-----------------|-0-0-0-0-0-0-0-0-|-0-0-0-0-0-0-0-0-||

Riff 1a
|-----------------|-----------------|-----------------|-----------------||2x
|-7---7-7/9-9---9/|-1111--11121212--|-----------------|-----------------||
|---0---0-0---0-0-|-0---0-0-0---0-0-|-----------------|-------------0---||
|-----------------|-----------------|-0-0-0-0-0-0-0-0-|-0-0-0-0-0-2---2-||

Riff 2
|-----------------|-----------------|-----------------|-----------------||2x
|-----------------|-----------------|-----------------|-----------------||
|-0-0-0-0-2-2-2-2-|-4-4-4-4-5-5-4-5-|-57--------7---5-|---7---------0---||
|-----------------|-----------------|-----0-0-0---0---|-----0-0-0-2---2-||

Play Riff 1 - 4x
Play Riff 2 - 4x

Riff 3
|-----------------|-----------------||-----------------|-----------------|--|--|
|-----------------|-----------------||-----------------|-----------------|-4x--|
|-----------------|-----------------||-----------------|-----------------|--|--|
|-2222222222222222|-222222222-023302||-3322222222222222|-222222222-023302|--|--|

|-----------------|-----------------||
|-----------------|-----------------||
|-----------------|-------------0---||
|-3322222222222222|-22222222222---2-||

Play Riff 2 - 4x
Play Riff 3

Riff 4
|-----------------|-----------------|-----------------|-----------------||4x
|-----------------|-----------------|-----------------|-----------------||
|-----------------|-----------------|-0000000000000000|-2222222222222222||
|-2222222222222222|-4444444444444444|-----------------|-----------------||

End
|-----------------||
|-----------------||
|-----R-----------||
|-3-2---2---------||




-----------------------------------------------------------------------------------------------------------




Metallica-Bleeding Me

Rest 6 bars

Intro
|-----------------|-----------------||
|-----------------|-----------------||
|---------------5/|-10--------9-109-||
|-----------------|-----------------||

Riff 1
|-----------------|-----------------|-----------------|-----------------|
|-----------------|-----------------|-----------------|-----------7-----|
|-7---------------|-----------------|-----------------|-------7/9---10--|
|---------0-------|(0)--------------|(0)--------------|-0---------------|

|-----------------|-----------------|-----------------|-----------------||2x
|-----------------|-----------------|-----------------|-----------------||
|-7---------------|-----------------|-7---------------|-10--10109-109---||
|---------0-------|(0)--------------|---------0-------|-----------------||

Riff 2
|-----------------|-----------------|-----------------|-----------------|
|-----------------|-----------------|-----------------|-----------------|
|-7-----0---------|-------0-----5---|-------0---------|-------0---0-----|
|-----0---0-------|(0)--0---2/3---3-|---2-0---0-------|(0)--0---2---3---|

|-----------------|-----------------|-----------------|-----------------|
|-----------------|-----------------|-----------------|-----------------|
|-------0---------|-------0-----5---|-------0---------|-----------------|
|(3)--0---0-------|(0)--0---2/3---3-|---2-0---0-000-0-|-3---3---2-3-2---|

|-----------------|-----------------|-----------------|-----------------|
|-----------------|-----------------|-----------------|-----------------|
|-------0---------|-------0-----5---|-------0---------|-------0---0-----|
|-1-0-0---0-------|(0)--0---2/3---3-|---2-0---0-------|(0)--0---2---3---|

|-----------------|-----------------|-----------------|-----------------||
|-----------------|-----------------|-----------------|-----------------||
|-------0---------|-------0-----5---|-------0---------|-----------------||
|(3)--0---0-------|(0)--0---2/3---3-|---2-0---0---0-0-|-3-3-3-3-2-3-2-2-||

Riff 3
|-----------------|-----------------|-----------------|-----------------|
|-----------------|-7-7---7-7---7---|-7-7---7-7---7---|-----------------|
|-7-7---7-7---7---|-5-5---5-5---5---|-5-5---5-5---5---|-5/7---7-7---2-5-|
|-0-0---0-0---0-57|---------------57|-----------------|-0-----0-0-------|

|-----------------|-----------------|-----------------|-----------------||
|-----------------|-7-7---7-7---7---|-7-7---7-7-------|-----------------||
|-7-7---7-7---7---|-5-5---5-5---5---|-5-5---5-5-5-320-|-----------------||
|-0-0---0-0---0-57|---------------57|-----------------|-5-5-5-5-5-5-3---||

Riff 1a
|-----------------|-----------------|-----------------|-----------------|
|-----------------|-----------------|-----------------|-----------7-----|
|-----------------|-----------------|-7---------------|-------7/9---10--|
|-0-------0-------|(0)--------------|---------0-------|(0)--------------|

|-----------------|-----------------|-----------------|-----------------||
|-----------------|-----------------|-----------------|-----------------||
|-7---------------|-----------------|-7---------------|-10--10109-109---||
|---------0-------|(0)--------------|---------0-------|-----------------||

Play Riff 2
Play Riff 3

Riff 4
|-----------------|-----------------|-----------------|-----------------|2x this row
|-----------------|-----------------|-----------------|-----------------|
|-2---2---2-------|-5---5---5-------|-5---5-5-5-----5-|-7---7-7-7-------|
|-0-0-0-0-0-----3/|-5---5---5-----3-|-5---5-5-5-----5-|-5---5-5-5-0-3---|

|-----------------|-----------------|-----------------|-----------------||2x this row
|-----------------|-----------------|-----------------|-----------------||
|-2---2---2-3-2-0-|-5---5---5-------|-5---5-5-5-----5-|-7---7-7-7-------||
|-0-0-0-0-0-------|-5---5---5-----3-|-5---5-5-5-----5-|-5---5-5-5-0-3---||

Play Riff 3

Riff 1b
|-----------------|-----------------|-----------------|-----------------|
|-----------------|-----------------|-----------------|-----------7-----|
|-----------------|-----------------|-7---------------|-------7/9---10--|
|-0---------------|(0)--------------|---------0-------|(0)--------------|

|-----------------|-----------------|-----------------|-----------------|
|-----------------|-----------------|-----------------|-----------------|
|-7---------------|-----------------|-7---------------|-10--10109-109---|
|---------0-------|(0)--------------|---------0-------|-----------------|

|-----------------|-----------------|-----------------|-----------------|
|-----------------|-----------------|-----------------|-----------7-----|
|-7---------------|(7)--------------|-7---------------|-------7/9---10--|
|-----------------|---------0-------|---------0-------|(0)--------------|

|-----------------|-----------------|-----------------|-----------------||
|-----------------|-----------------|-----------------|-----------------||
|-7---------------|-----------------|-7---------------|-10--10109-109---||
|---------0-------|(0)--------------|---------0-------|-----------------||

Play Riff 4

Lead In
|-----------------||
|-----------------||
|-----------------||
|-0---------------||

Rest 10 bars

Lead In
|-----------------|-----------------||
|-----------------|-----------------||
|-7\\---------R---|-7-7-7---7-7-7-7-||
|---------0-------|-----------------||

Riff 5
|-----------------|-----------------||8x
|-----------------|-----------------||
|-----------R-----|-R-----------3---||
|-0-000-2-0---5-0-|---3-0-5-0-3---3-||

Play Riff 4

Riff 6 (solo)
|-----------------|----|-----------------|
|-----------------|-7x-|-----------------|
|-----------------|----|---------------0-|
|-0-0-0-0-0-0-0-0-|----|-0-0-0-0-0-0-0---|

|-----------------|-----------------|-----------------|-----------------||
|-----------------|-----------------|-----------------|-----------------||
|-2---2-2-2-2-2-3-|---0-0---0-3-3-0-|-2---2-2-2-2-2-3-|---0-0---0-5-5-7-||
|-----------------|-----------------|-----------------|-----------------||

Play Riff 5 - 4x
Play First Row of Riff 4

Lead In
|-----------------|-----------------|--|--|-----------------|-----------------||
|-----------------|-----------------|-3x--|-----------------|-----------------||
|-----------------|-----------------|--|--|-----------------|-10--10109-109---||
|-0---------------|(0)--------------|--|--|-0---------------|-----------------||

Rest 6 bars
Play Intro

Riff 1c
|-----------------|-----------------|-----------------|-----------------|
|-----------------|-----------------|-----------------|-----------7-----|
|-7---------------|-----------------|-7---------------|-------7/9---10--|
|---------7-------|-0---------------|---------0-------|-3---------------|

|-----------------|-----------------|-----------------|-----------------|
|-----------------|-----------------|-----------------|-----------------|
|-7---------------|-----------------|-7---------------|-10--10--9-109---|
|---------0-------|-0---------------|---------0-------|-----------------|

|-----------------|-----------------|-----------------|-----------------|
|-----------------|-----------------|-----------------|-----------7-----|
|-7---------------|-----------------|-7---------------|-------7/9---10--|
|---------0-------|-0---------------|---------0-------|-0---------------|

|-----------------|-----------------|-----------------|-----------------||
|-----------------|-----------------|-----------------|-----------------||
|-7---------------|-----------------|-7---------------|-10--10109-109---||
|---------7-------|-0---------------|---------0-------|-----------------||

End
|-----------------||
|-----------------||
|-7---------------||
|-0---------------||




-----------------------------------------------------------------------------------------------------------




Metallica-Cure

Rest through first verse

Riff 1
|-----------------|-----------------|-----------------|-----------------|2x this row
|-----------------|-----------------|-----------------|-----------------|
|-----------------|-----------R-1---|---0-1---------1-|-0-1-0-----------|
|-1-1-1-1-1-1-1-1-|-1-1-1-1-1-----1-|-------0-1-0-0---|-------0-1-0-0-1-|

|-----------------|-----------------|-----------------|-----------------|
|-----------------|-----------------|-----------------|-----------------|
|---0-1---------1-|-0-1-0-----------|-----------------|-----------------|
|-------0-1-0-0---|-------0-1-0-3-0-|-6-0-0-0-0-0-3-0-|-6-0-0-0-0-0-3-0-|

|-----------------|-----------------||
|-----------------|-----------------||
|-----------------|---7-6-5---------||
|-6-0-0-0-0-0-3-0-|-6---------7-6-5-||

Riff 2
|-----------------|-----------------|-----------------|-----------------|--|--||
|-----------------|-----------------|-----------------|-----------------|-5x--||
|-----------------|-----------------|-----------------|-----------------|--|--||
|-0---3---0-0-0-0-|-0-0-0-0-0-0-0-0-|-0-0-3---0-0-0-0-|-0-0-0-0-0-0-0-0-|--|--||

Play Riff 1

Riff 3
|-----------------|-----------------|--|--|-----------------|-----------------|
|-----------------|-----------------|-3x--|-----------------|-----------------|
|-----------------|---7-6-5---------|--|--|-----------------|---7-------7-----|
|-6-0-0-0-0-0-0-0-|-6---------7-6-5-|--|--|-6-0-0-0-0-0-0-0-|-6---6-5-----6-5-|

|-----------------|-----------------|-----------------||
|-----------------|-----------------|-----------------||
|---7-------7-----|-----------------|-----------------||
|-6---6-5-----6-5-|-3-0-------------|(0)--------------||

Pre-Solo
|-----------------||
|-----------------||
|---7-------7-----||
|-6---6-5-----6-5-||

Solo
|-----------------|-----------------|-----------------|-----------------|
|-----------------|-----------------|-----------------|-----------------|
|-----------------|-----------------|-----------------|-----------------|
|-0---3---0-0-0-0-|-0-0-0-0-0-0-0-0-|-0-0-3---0-0-0-0-|-0-0-0-0-0-0-0-0-|

|-----------------|-----------------|-----------------|-----------------|
|-----------------|-----------------|-----------------|-----------------|
|-----------------|-----------------|-----------------|-----------------|
|-0-0-3---0-0-3---|-0-0-3---0-0-3---|-0-0-3---0-0-0-0-|-0-0-0-0-0-0-0-0-|

|-----------------|-----------------|-----------------||
|-----------------|-----------------|-----------------||
|-----------------|-----------------|---7-------7-----||
|-1-1-1-1-1-1-1-1-|-1-1-1-1-1-1-1-1-|-6---6-5-----6-5-||

Play Riff 3

Lead In
|-----------------|-----------------||
|-----------------|-----------------||
|-----------------|-----------------||
|-0-0-0-0-0-0-0-0-|-0-0-0-0-0-0-3-0-||

Riff 4
|-----------------|-----------------|--|--|-----------------|-----------------|
|-----------------|-----------------|-3x--|-----------------|-----------------|
|-----------------|-----------------|--|--|-----------------|-----------------|
|-6-5-0-0-0-0-565-|-5b--0-0-0-0-3-0-|--|--|-6-5-0-0-0-0-5-5-|-6-6-0-0-0-0-3-5-|

|-----------------|-----------------|-----------------|-----------------|2x this row
|-----------------|-----------------|-----------------|-----------------|
|-------7---------|-------5---------|-------4---------|-------2---------|
|-5b--------0-3-5-|-5b--------0-3-5-|-5b--------0-3-5-|-5b--3-0---0-3-5-|

|-----------------|-----------------|-----------------|-----------------||
|-----------------|-----------------|-----------------|-----------------||
|---7-------------|---5-------------|---4-------------|-----------------||
|-6---6-5---0-3-5-|-6---6-5---0-3-5-|-6---6-5---0-3-5-|-5b--3-0-0---3---||

Play Riff 3 (frist two bars 7x)

End
|-----------------|-----------------|-----------------||
|-----------------|-----------------|-----------------||
|---7-------7-----|---7-------7-----|-----------R-----||
|-6---6-5-----6-5-|-6---6-5-----6-5-|-0---3---0-------||




-----------------------------------------------------------------------------------------------------------




Metallica-Poor Twisted Me

rest for a bit

Intro
|-------------|-------------|-------------|-------------|-------------||
|-----------5-|-7-7-7-7---7-|-7---7-7---7-|-----7-7-7-7-|-7---5-------||
|-------------|-------------|-------------|-------------|-------7-5-3-||
|-------------|-------------|-------------|-------------|-------------||

Riff 1
|-------------|-------------|-------------|-------------|
|-------------|-------------|-------R-----|-------------|
|-------------|-------------|-----3-------|-------------|
|-5-----5---3-|-5-----5---3-|-5-----------|-------------|

|-------------|-------------|-------------|-------------||2x
|-------------|-------------|-------------|-------------||
|-------------|-------------|-------R-----|-------------||
|-5-----5---3-|-5-----5---3-|-5---3-------|-------------||

Riff 2
|-------------|-------------|-------------|-------------|2x this row
|-------------|-------------|-------------|-------------|
|-------------|-------------|---R---------|-------------|
|-5---5-5---5-|-5----------\|-3-----------|-------------|

|-------------|-------------|-------------|-------------|
|-------------|-------------|-------------|-------------|
|-------------|-------------|---R---------|-------------|
|-5---5-5---5-|-5----------\|-3-----------|-------0-3-5-|

|-------------|-------------|-------------|-------------|
|-------------|-------------|-------------|-------------|
|-------------|-------------|-------------|-------------|
|-3-----3---3-|-3-----3---3-|-3-----3---3-|-3-----3-----|

|-------------|-------------|-------------|-------------|
|-------------|-------------|-------------|-------------|
|-------------|-------------|-------------|-------------|
|-3-----3---3-|-3-----3---3-|-3-3-3-3-----|-3-3-3-3-----|

|-------------|-------------|-------------|-------------|
|-------------|-------------|-------R-----|-------------|
|-------------|-------------|-----3-------|-------------|
|-5-----5---3-|-5-----5---3-|-5-----------|-------------|

|-------------|-------------|-------------|-------------|
|-------------|-------------|-------------|-------------|
|-------------|-------------|-------R-----|-----------3-|
|-5-----5---3-|-5-----5---3-|-5---3-------|-----0-3-5---|

|-------------|-------------|-------------|-------------|
|-------------|-------------|-------------|-------------|
|-5-----5---5-|-5---5-7---5-|-3-----3---3-|-3---3-7-----|
|-------------|-------------|-------------|-----------0-|

|-------------|-------------|-------------|-------------||
|-------------|-------------|-------------|-------------||
|-------------|-------------|-7-7-7-7-7-7-|-7-7-7-7-7-7-||
|-3---3-3---3-|-3-3-5-3\----|-0-0-0-0-0-0-|-0-0-0-0-0-0-||

Play Riff 1 - 2x
Play Riff 2

Riff 1a
|-------------|-------------|-------------|-------------|
|-------------|-------------|-------------|-------------|
|-------------|-------------|-------------|-----------3-|
|-5-----5---3-|-5-----5---3-|-5---5-5---3-|-5---3-5-----|

|-------------|-------------|-------------|-------------|
|-------------|-------------|-------------|-------------|
|-------------|-------------|-------------|-------------|
|-5-----5---3-|-5-----5-5-3-|-5-----5---3-|-5---3-5---3-|

|-------------|-------------|--|--|-------------|-------------|
|-------------|-------------|-3x--|-------------|-------------|
|-------------|-------------|--|--|-------------|-------------|
|-3---3-3-3-3-|-3---3-3-3-3-|--|--|-3---3-3-3-3-|-3-3-2-2-1-1-|

|-------------|-------------|-------------|-------------||
|-------------|-------------|-------------|-------------||
|-------------|-7-----------|-------------|-------------||
|-0---0-0-0-0-|-----0-0-0-0-|-0---0-0-0-0-|-3-3-0-0-3-3-||

Play Riff 1 - 2x

Riff 3
|-------------|-------------|-------------|-------------|
|-------------|-------------|-------------|-------------|
|-------------|-------------|---R---------|-------------|
|-8---8-8---8-|(8)---------\|-3-----------|-------------|

|-------------|-------------|-------------|-------------||
|-------------|-------------|-------------|-7---5-------||
|-------------|-------------|---R---------|---------7---||
|-8---8-8---8-|(8)---------\|-3-----------|-------------||

Play Riff 1a

Riff 2a
|-------------|-------------|-------------|-------------|
|-------------|-------------|-------------|-------------|
|-5-----5---5-|-5---5-7---5-|-3-----3---3-|-3---3-7-----|
|-------------|-------------|-------------|-----------0-|

|-------------|-------------|-------------|-------------|
|-------------|-------------|-------7-7-7-|-7-----------|
|-------------|-------------|-------------|-----7---4---|
|-3---3-3---3-|-3-3-5-3\----|-5-5-5-------|-------------|

|-------------|-------------|-------------|-------------|
|-------------|-------------|-------------|-------------|
|-5-----5---5-|-5---5-7---5-|-3-----3---3-|-3---3-7-----|
|-------------|-------------|-------------|-----------0-|

|-------------|-------------|-------------|-------------||
|-------------|-------------|-------------|-------------||
|-------------|-------------|-7-7-7-7-7-7-|-7-7-7-7-7-7-||
|-3---3-3---3-|-3-3-5-3\----|-0-0-0-0-0-0-|-0-0-0-0-0-0-||

Play Riff 1 - 2x

Outro
|-------------|-------------||
|-------------|-------------||
|-------------|---R---------||
|-5---5-5---5-|-5-----------||




-----------------------------------------------------------------------------------------------------------




Metallica-Waste My Hate

Guitar intro

Intro
|-----------------|-----------------|-----------------|-----------------||
|-----------------|-----------------|-----------------|-----------------||
|-----------0-5-7-|---0-5-7---0-5-7-|---0-5-7---0-5-7-|---R-------------||
|-----------------|-----------------|-----------------|-0---------------||

rest 6 bars

Lead In
|-----------------||
|-----------------||
|-----------------||
|-x-x-x-x-x-x-x-0-||

Riff 1
|-----------------|-----------------|-----------------|-----------------|2x this row
|-----------------|-----------------|-----------------|-----------------|
|-----------------|-----------------|-----------------|-----------------|
|---0-0-0-0-0-0-0-|-0-5-7-0-7-6-6-5-|-5-5-5-5-5-4-4-3-|---5-5-0-3-5-5-0-|

|-----------------|-----------------|-----------------|-----------------|
|-----------------|-----------------|-----------------|-----------------|
|-----------------|-----------------|-----------------|-----------------|
|-0-0-0-0-0-0-0-0-|-0-0-0-0-0-0-001-|-0-0-0-0-0-0-0-0-|-0-0-0-0-0-0-0-0-|

|-----------------|-----------------|-----------------|-----------------|
|-----------------|-----------------|-----------------|-----------------|
|-----------------|-----------0-5-7-|---0-5-7---0-5-7-|---0-5-7---0-5-7-|
|-0-0-0-0-0-0-001-|-0-0-0-0-0-------|-----------------|-----------------|

|-----------------|-----------------|-----------------|-----------------|
|-----------------|-----------------|-----------------|-----------------|
|-----------------|---------------5-|-5-5-5-5-5-5-----|-----------------|
|-0-0-0-0-0-0-0-0-|-0-0-0-0-0-0-0---|-------------7-5-|---5-5-5-5-5-1-1-|

|-----------------|-----------------|-----------------|-----------------|
|-----------------|-----------------|-----------------|-----------------|
|-----------------|-----------0-5-7-|---0-5-7---0-5-7-|---0-5-7---------|
|-0-0-0-0-0-0-0-0-|-0-0-0-0-0-------|-----------------|---------7-6-5-3-|

|-----------------|-----------------|-----------------|-----------------|
|-----------------|-----------------|-----------------|-----------------|
|-----------------|---------------5-|---5-5---5---5---|-------------2---|
|-0---0---0-0-0-0-|---0-0---0---0---|---------------5-|---5-5-0-3-5---0-|

|-----------------|-----------------|-----------------|-----------------|
|-----------------|-----------------|-----------------|-----------------|
|-------------5-7-|---------7-5---5-|-----5-5-5-------|-------------2---|
|---0-0-0-5-7---0-|-----0-0-----7---|-----------7-0-5-|-----5-0-3-5---0-|

|-----------------|-----------------|-----------------|-----------------|
|-----------------|-----------------|-----------------|-----------------|
|-------------5-7-|---------7-5-----|-----------------|-------------2---|
|-----0-0-5-7---0-|-----0-0-----7-5-|-3---3-3-5-3-----|-5---5-0-3-5---0-|

|-----------------|-----------------|-----------------|-----------------||2x whole riff
|-----------------|-----------------|-----------------|-----------------||
|-----------------|-----------------|-----------------|-----------------||
|(0)--------------|(0)--------------|(0)--------------|(0)--------------||

Lead In
|-----------------|-----------------|-----------------|-----------------||
|-----------------|-----------------|-----------------|-----------------||
|-7---------------|(7)--------------|(7)--------------|(7)--------------||
|-0---------------|(0)--------------|(0)--------------|(0)--------------||

Riff 2
|-----------------|-----------------|--|--|-----------------|-----------------||
|-----------------|-----------------|-3x--|-----------------|-----------------||
|-0-5-7-0-5-7-0-5-|-7-0-5-7-0-------|--|--|-----------------|-----------------||
|-----------------|-----------0-1-1-|--|--|-0-0-0-0-0-0-0-0-|-0-0-0-0-0-0-1-1-||

Play Riff 1 (without first row)

Lead Im
|-----------------|-----------------|-----------------|-----------------||
|-----------------|-----------------|-----------------|-----------------||
|-7---------------|(7)--------------|(7)--------------|(7)--------------||
|-0---------------|(0)--------------|(0)--------------|(0)--------------||

End
|-----------------|-----------------||
|-----------------|-----------------||
|-0-5-7-0-5-7-0-5-|-7-0-5-7-0-------||
|-----------------|-----------0-1-1-||




-----------------------------------------------------------------------------------------------------------




Metallica-Mama Said

Rest through first verse

Riff 1
|-------------|-----------------|-------------|-----------------|
|-------------|-----5-----------|-------------|-----5-----------|
|-R-----------|-----------------|-5---3---0---|-----------------|
|-------------|-3-------3-333-35|-------------|-3-------3-33335-|

|-------------|-----------------|-----------------|-----------------||
|-------------|-----5-----------|-----------------|-----------------||
|-5---3---0---|-----------------|-5---3--31-------|-----------------||
|-------------|-3-------3-333-35|-------------3---|-5\3/5-----------|| hold last note

Rest through second verse

Riff 1a
|-------------|-----------------|-------------|-----------------|
|-------------|-----5-----------|-------------|-----5-----------|
|-R-----------|-----------------|-5---3---0---|-----------------|
|-------------|-3-------3-333-35|-------------|-3-------3-33335-|

|-------------|-----------------|-----------------|-----------------||
|-------------|-----5-----------|-----------------|-----------------||
|-5---3---0---|-----------------|-5---3--31-------|---------------34||
|-------------|-3-------3-333-35|-------------3---|-535-55555-535---||

Riff 2
|-----------------|-----------------|-----------------|-----------------|
|-----------------|-----------------|-----------------|-----------------|
|-5-530-----------|-3-530-----------|-5-530-----------|-3-530-----------|
|-------3-33-353--|-------1-11-1310-|-------3-33-353--|-------1-11-1310-|

|-----------------|-----------------|-----------------|-----------------||
|-----------------|-----------------|-----------------|-----------------||
|-5-530-----------|-3-3-0-----------|-5-530-----------|-3-530-----------||
|-------3-33-353--|------31--11-131-|-------3-33-353--|------31-1111131-||

Lead In
|-----------------|-----------------||
|-----------------|-----------------||
|-5---3---1-------|-------------575-||
|-------------3---|-535---555-5-----||

Riff 3
|-------------7---|-----------------|-------------7---|-----------------|
|-----------7---7-|-------------57--|-----------7---7-|-------------75--|
|-5---------------|53-----0---57--57|-5---------------|53-----0-------76|
|-----------------|-----------------|-----------------|-----------------|

|-------------7---|-----------------|-------------7---|-----------------||
|-----------7---7-|-------------57--|-----------7---7-|-----------------||
|-5---------------|53-----0---57--57|-5---------------|53-----0---------||
|-----------------|-----------------|-----------------|-----------------||

Riff 1b
|-------------|-----------------|-------------|-----------------|
|-------------|-----5-----------|-------------|-----5-----------|
|(0)----------|-----------------|-5---3---0---|-----------------|
|-------------|-3-------3-333-35|-------------|-3-3-----3-333-35|

|-------------|-----------------|-----------------|-----------------|
|-------------|-----5-5---------|-----------------|-----7--7-7------|
|-5---3---0---|-----------------|-5---3--31-------|-------0-0-----34|
|-------------|-333-----3-333335|-------------3---|-535-------353---|

|-------------|-----------------|-------------|--------57-5-5-5-|
|-------------|-----------------|-------------|------------7-7-7|
|-5--53--30--0|-5-555555-555-55-|-5--53--30-0-|-5-5555----------|
|-------------|-----------------|-------------|-----------------|

|-------------|-7-7777-7-777-97-|-----------------|-----------------||
|-------------|-7-7777-7-777---7|-----------------|----7-777--------||
|-5-5-3-33000-|-5---------------|-5---3--31-------|--------------234||
|-------------|-----------------|-------------3---|-535-----5-345---||

Lead In
|-----------------|-----------------|-----------------|-----------------||
|-----------------|-----------------|-----------------|-----------------||
|-5-530-----------|-3-530-----------|-5-530-----------|-3-530-----------||
|-------3-33-353--|-------1-11-1310-|-------3-33-353--|-------1-1111310-||

Play Riff 2

End
|-----------------|-----------------||
|-----------------|-----------------||
|-5---3---1-------|-5---------------||
|-------------3---|-----------------||




-----------------------------------------------------------------------------------------------------------




Metallica-Thorn Within

Intro
|-----------------|-----------------|7x this row
|-----------------|-----------------|
|-R---------------|---------R-------|
|-----5-----------|(5)--5-----------|

|-----------------|-----------------||3x this row
|-----------------|-----------------||
|-----------------|-----------------||
|-3-5-5-5-5-5-5-5-|-5-5-5-5-5-0-3-0-||

Riff 1
|-------------|-------------|-------------|-------------|3x this row
|-------------|-------------|-------------|-------------|
|-------------|-------------|-------------|-------------|
|-2-2-0-2-2-0-|-2-2-0-2-2-0-|-2-2-0-2-0-2-|-220-3-3-2-0-|

|-------------|-------------|-------------|-------------|-------------||
|-------------|-------------|-------------|-------------|-------------||
|---4-----3---|---2---------|(2)----------|-7-----------|(7)----------||
|-2-----2-----|-2-----------|-------------|-0-----------|(0)------3/5-||

Riff 2
|-----------------|-----------------|-----------------|-----------------|
|-----7-----------|-----------------|-----9-----------|-----------------|
|-----------------|-----------------|-----------------|-----------------|
|-5-------5---5---|-5-5-5-0-5-0-5/7-|-7-7-----7-------|-7---7/8---7\3---|

|-----------------|-----------------|-----------------|-----------------|
|-----5-------5\4-|---------4---4---|-------9---------|---------4-------|
|-----------------|-----------------|-----------------|-----------------|
|-3-------3-------|-2---2-2---2---2/|-7-7-7---7-7-0-3-|-2---2-2---0-3---|

|-----------------|-----------------|-----------------|-----------------|
|-----7-----------|-----------------|-----------------|-----------------|
|-----------------|-----------------|-----9---9-----9-|-----------------|
|-5-------5---5---|-5-5-5-0-5-0-5/7-|-7-7-7---7-7-7-7-|-7-7-7/8---7\5---|

|-----------------|-----------------|-----------------|-----------------||
|-------5---------|-------4---------|-----------------|-----------------||
|-----------------|-----------------|-----------------|-----------------||
|-3-3-3---3-0-3-2-|-2-2-2---2-0-3-2-|-7-7-7-7-7-7-7-7-|-5-5-5-5-5-5-0-3-||

Riff 1a
|-------------|-------------|-------------|-------------|4x this row
|-------------|-------------|-------------|-------------|
|-------------|-------------|-------------|-------------|
|-2-2-0-2-2-0-|-2-2-0-2-2-0-|-2-2-0-2-0-2-|-220-3-3-2-0-|

|-----------------|-----------------||
|-----------------|-----------------||
|-----R-----------|-R-----R---------||
|-3-3---3-3-0-3-3-|---3-3---3-0-3-0-||

Riff 3
|-----------------|-----------------|--|--|-----------------|-----------------||
|-----------------|-----------------|-2x--|-----------------|-----------------||
|-----------------|-----------------|--|--|-7---------------|(7)--------------||
|-3-5-5-5-5-5-5-5-|-5-5-5-5-5-0-3-0-|--|--|-0---------------|(0)--------------||

Play Riff 2
Play Riff 1a

Riff 3a
|-----------------|-----------------|--|--|-----------------|-----------------|--|--||
|-----------------|-----------------|-2x--|-----------------|-----------------|-2x--||
|-----------------|-----------------|--|--|-----R-----------|-R-----R---------|--|--||
|-3-5-5-5-5-5-5-5-|-5-5-5-5-5-0-3-0-|--|--|-3-3---3-3-0-3-3-|---3-3---3-0-3-0-|--|--||

Riff 2a
|-----------------|-----------------|-----------------|-----------------|
|---------7-------|-----7-----------|-----9-------9---|-----9-------9---|
|-----------------|-----------------|-----------------|-----------------|
|-3/5---5---5-5---|-5-5---0-5-0-5/7-|-7-7---7-7-7-----|-7-------7-----7\|

|-----------------|-----------------|-----------------|-----------------|
|-------5---------|-------4---------|-----------9-----|-------4---------|
|-----------------|-----------------|-----------------|-----------------|
|-3-3-3---3-3-3\2-|-2-2-2---2-2-2-2/|-7---7-7-7-----7\|-2---------0-3-0-|

|-----------------|-----------------|-----------------|-----------------|
|-------7---------|-----------------|-------9---------|-----------------|
|-----------------|-----------------|---------------9-|-7---------------|
|-5---5-----5-5---|-5-5-5-0-5-0-5/7-|-7-7-7-----7-----|-----107-78-78-7\|

|-----------------|-----------------|-----------------|-----------------||
|-------5---------|-------4-------4-|-----------------|-----------------||
|-----------------|-----------------|-----------------|-----------------||
|-3-3-3-----3-3---|-2-2-2-----2-2---|-7-7-7-7-5-7-7-7-|-5-5-5-5-5-5-0-3-||

Riff 1a
|-------------|-------------|-------------|-------------|4x this row
|-------------|-------------|-------------|-------------|
|-------------|-------------|-------------|-------------|
|-2-2-0-2-2-0-|-2-2-0-2-2-0-|-2-2-0-2-0-2-|-220-3-3-2-0-|

|-----------------|-----------------||
|-----------------|-----------------||
|-----R-----------|-R-----R---------||
|-3-3---3-3-0-3-3-|---3-3---33333333||

Riff 1b
|-------------|-------------|-------------||12x
|-------------|-------------|-------------||
|-------------|-------------|-------------||
|-2-2-0-2-2-0-|-2-2-0-2-2-0-|-2-2-0-2-0-5-||

End
|-------------||
|-------------||
|-------------||
|-2-----------||




-----------------------------------------------------------------------------------------------------------




Metallica-Ronnie

Rest 7 Bars

Intro
|-----------------||
|-----------------||
|-R---------------||
|-------------0-3-||

Riff 1
|-----------------|-----------------|-----------------|-----------------||2x
|-----------------|-----------------|-----------------|-----------------||
|-0--x0--x0--x0---|-0--x0--x0--x0-3b|-0--x0--x0-------|-0-3-3-3-5-5b--3-||
|---------------3-|-----------------|-----------0-3-4-|-----------------||

Riff 2
|-----------------|-----------------|-----------------|-----------------|
|---7---77--7---02|---77--77--7---02|---77--77--7---02|-----------------|
|-0---0---0---0---|-30--0---0---0---|-30--0---0---0---|-3---2-------xx35|
|-----------------|-----------------|-----------------|--------01-3-----|

|-----------------|-----------------|-----------------|-----------------|
|-----------------|----------------5|-----------------|---------57------|
|-----R---R-------|-----R-----5-5-7-|-7-------R-------|-------7---5-5-03|
|-0-00--00--0-0-0-|-0000--000-------|-----0-00--0-0-0-|-0000-00---------|

|-----------------|-----------------|
|---7---77--7---02|---77--77--------|
|-0---0---0---0---|-30--0---0-------|
|-----------------|----------03-3-2-|

|-----------------|-----------------|-----------------|-----------------|
|-----------------|----------------5|-----------------|---------57------|
|-----R---R-------|-----R-----5-5-7-|-7-------R-------|-------7---5-5-03|
|-0-00--00--0-0-0-|-0000--000-------|-----0-00--0-0-0-|-0000-00---------|

|-----------------|-----------------||
|-----------------|-----------------||
|-35555555555-5-35|-535555555333332-||
|-----------------|-----------------||

Play Riff 1 - 2x

Chorus End
|-----------------||
|---R-------------||
|-3---------------||
|-----------------||

Play Riff 2
Play Riff 1 - 2x
Play Chorus End

Lead In
|-----------------|-----------------|-----------------|-----------------||
|-----7-77----7777|-----7-77--------|-7---------------|(7)--------------||
|-0-00----0-00----|-0-00----00000000|-----------------|-----------------||
|-----------------|-----------------|-----------------|-----------------||

Riff 3
|-----------------|-----------------|-----------------|-----------------|
|---7-77--75------|-----------------|-----------------|-----------------|
|-0---------7-5---|-----------------|-----------------|-----------------|
|---------------53|-5\--------003345|-5\--------0-1234|-5-55--3-33220035|

|-----------------|-----------------|-----------------|-----------------|
|-----------------|-----------------|-----------------|-----------------|
|-----------------|-----------------|-----------------|-----3-335-5553--|
|-5\--------0-1234|-5\--------001234|-5\--------0-1234|-5-35----------55|

|-----------------|-----------------|-----------------|-----------------||
|-----------------|-----------------|-----------------|-----------------||
|-----------------|-----------------|-----------------|-----------------||
|-5\--------001234|-5\--------0-1234|-5\--------0-1234|-5-5-3-332-2-0-34||

Play Riff 1 -2x
Play Chorus End

Outro
|-----------------|-----------------|-----------------|-----------------|3x this row
|---7---77--7---02|---77--77--7---02|---77--77--7---02|-----------------|
|-0---0---0---0---|-30--0---0---0---|-30--0---0---0---|-3---2-------xx35|
|-----------------|-----------------|-----------------|--------01-3-----|

|-----------------|-----------------|-----------------|-----------------|
|---7---77--7---02|---77--77--7---02|---77--77--7---02|-----------------|
|-0---0---0---0---|-30--0---0---0---|-30--0---0---0---|-3---2-------R---|
|-----------------|-----------------|-----------------|--------01-3-----|

|-----------------||
|-----------------||
|-5---------------||
|-----------------||




-----------------------------------------------------------------------------------------------------------




Metallica-Outlaw Torn

Riff 1
|-----------------|-----------------||8x
|-----------------|-----------------||
|-----R-----R-----|-R-----R---R-----||
|-0-0---0-0---0-0-|---0-0---0---0-0-||

Riff 2
|-----------------|-----------------|-----------------|-----------------||4x
|-----------------|-----------------|-----------------|-----------------||
|-5-7-----7---7---|-5-7-----7---7---|-9b--5-5---5-5-5-|-5---5-------5---||
|-----0-0-0-0-0-0-|-------000-0-0-0-|-----------------|-------0-3-2---0-||

Riff 3
|-----------------|-----------------|-----------------|-----------------||7x
|---------2-------|-----------------|---------2-------|-----------------||
|-----------------|-----------------|-----------------|-----------------||
|-0--/3-------3-2-|-0--/3---5b----3-|-0--/3-------3-2-|-3-2-0---3---0-3-||

Riff 4
|-----------------|-----------------|-----------------|-----------------|
|-----------------|-----------------|-----------------|-----------------|
|---------5-------|---------5-------|---------5-------|---------5-------|
|-7-5-7-7-----7-5-|-7-5-7-7-----7-5-|-7-7-7-7-----7-5-|-7-5-7-7-----7-0-|

|-----------------|-----------------|-----------------|-----------------||
|-----------------|-----------------|-----------------|-----------------||
|-0-0-0-0-3---0---|-0---0-0-3---0---|-0-0-0-0-3---0---|-0---0-0---------||
|---------------3-|---------------3-|---------------3-|---------3-2-----||

Play Riff 2 - 4x
Play Riff 3 - 7x
Play Riff 4
Play Riff 2 - 4x

Riff 5
|-----------------|-----------------|-----------------|-----------------|
|-7-9-------------|-----------------|-----------------|-----------------|
|-5-7-------------|-5---------------|-----------------|-----------------|
|---------0-0-0-0-|---5---3-5-5-5-0-|-3-5-5-5-5-5-5-0-|-5-3---2-3-3-3-0-|

|-----------------|-----------------|-----------------|-----------------|
|-7-9-------------|-----------------|-----------------|-----------------|
|-5-7-------------|-5---------------|-----------------|-----------------|
|---------0-0-0-0-|---5---3-5-5-5-0-|-3-5-5-5-5-5-5-0-|-5-3-------2-2-2-|

|-----------------|-----------------|-----------------|-----------------|
|-7-9-------------|-----------------|-----------------|-----------------|
|-5-7-------------|-5---------------|-----------------|-----------------|
|---------0-0-0-0-|---5---3-5-5-5-0-|-3-5-5-5-5-5-5-0-|-5-3---2-3-3-3-0-|

|-----------------|-----------------|-----------------|-----------------||
|-7-9-------------|-----------------|-----------------|-----------------||
|-5-7-------------|-5---------------|-----------------|-----------------||
|---------0-0-0-0-|---5---3-5-5-5-0-|-3-5-5-5-5---5-3-|-5-3-33333-22222-||

Play Riff 1 - 12x
Play Riff 3 - 2x
Play Riff 4
Play Riff 2 - 4x
Play Riff 5
Play Riff 1 - 12x

Outro
|-----------------|-----------------|-----------------|-----------------|4x this row
|-----------------|-----------------|-----------------|-----------------|
|-----------------|-----------------|-----------------|-----------------|
|-0-------0---0---|-1-------1---1---|-2-------2---2---|-3-------3---3---|

|-----------------|-----------------|-----------------|-----------------||repeat
|-----------------|-----------------|-----------------|-----------------||and fade
|-----------------|-----------------|-----------------|-----------------||this row
|-0-000-000-000-00|-1-111-111-111-11|-2-222-222-222-22|-3-333-333-333-33||
Добавлено: 29.05.2015
Другие материалы по этой песне:
  • Аккорды и текст

Страница создана 29.05.2015
http://primanota.ru/metallica/load-ver-2-album-chords.htm
Привет, Гость.
Предлагаем пройти революционный курс по гитаре.
Подарок от PrimaNota.Ru, забирай!