PrimaNota.ru - самый крупный в мире бесплатный архив песенных текстов, аккордов, табулатур и нот


Metallica - Load (album) - таба, бас-таба, видео

Регистрация Запомнить меня
Войти через:  Facebook Google Twitter Vk Yandex Mail.ru

Metallica - Load (album) - таба, бас-таба, видео

Печатать
Просмотров: 310
            .-/                                    ~=-._
         .-~ /   ____  ______ __  _    _     _   ____|  ~-._
        ~~/  -~||  __||_  __//  || |  | |   | | / __/| .\~~
         / . . ||  __| | |  / ' || |__| |__ | || (__ |   \
        / / ~| ||____| |_| /_/|_||____|____||_| \___\| |\ \
       / /   |-~                                     ~-| \ \
------------------------------------------------------------------------------|
------------------------------------------------------------------------------|

Contents (obviously)..
1.  Ain't My Bitch              - Miguel Mora
2.  2x4                         - immortal@electech.....?
*3.  The House That Jack Built   - Keefa 
*4.  Until It Sleeps (version 1) - Chris Rizzo (cjr68797@pegasus.cc.ucf.edu)
    Until It Sleeps (version 2) - Luis Soro
5.  King Nothing                - Luis Soro
*6.  Hero Of The Day             - Paul Meller (smel5@student.monash.edu.au)
7.  Bleeding Me (version 1)      - Brian Stoner
*    Bleeding Me (version 2)      - Keefa 
*8.  Cure                        - Chris Rizzo (cjr68797@pegasus.cc.ucf.edu)
9.  Poor Twisted Me             - Luis Soro
*10. Wasting My Hate             - Keefa 
*    Wasting My Hate (version 2) - newsgroup post
11. Mama Said (version 1)       - Daniel Meijer
*    Mama Said (version 2)       - Andrew Bowie (bowie@yoyo.cc.monash.edu.au)
*12. Thorn Within                - Andrew Bowie (bowie@yoyo.cc.monash.edu.au)
*13. Ronnie                      - viper@warwick.net
*14. The Outlaw Torn             - Keith Railton (Athol.Quatro@onyx.octacon.co.uk)

------------------------------------------------------------------------------|
------------------------------------------------------------------------------|

Ain't My Bitch
---------------------
This is the tab for Ain't my Bitch.  This is the first time I have ever done
tab so bear with me.  This song and the rest of the album is in E flat.


             Opening Riff      Main Riff (riff 1)
e:---------------------------------------------------------------------------|
B:---------------------------------------------------------------------------|
G:---------------------------------------------------------------------------|
D:-------------------------------------------------------------5-------------|
A:--------------------5-------------------------------------------7----------|
E:-----------0--0--0--3--------0--0--0--0--0--0----0--0--0--0--------0--0--0-|

               end of Riff 1     Fill 1 (play 3 times)   |   then play this |
e:-------------------------------------------------------|------------------|
B:-------------------------------------------------------|------------------|
G:-------------------------------------------------------|------------------|
D:--------------------------------------5-----7-----5----|--------5-----5---|
A:---------------------5----------5--7-----7-----7-----7-|--5--7-----7------|
E:-0--0--0----0--0--0--3---------------------------------|------------------|


      Riff 2                                                        Hold  E c
e:---------------------------------------------------------------------------|
B:---------------------------------------------------------------------------|
G:----------------------------------5----------------------------------------|
D:-------------------------------------7-------------------------------------|
A:---0--0--0--0--0--0---0--0--0--0---------0--0--0--0--0--0---0--0--0--5--5--|
E:---------------------------------------------------------------------3--3--|


  hord
e:----|
B:----|
G:----|
D:2---|
A:2---|
E:0---|


    Chorus Ri
e:------------------------------------------------------------------0-----0--|
B:------------------------------------------------------------------0-----0--|
G:--4--2---------------------------------------------------------4-----2-----|
D:--4--2--5------------------------------------------------------4-----2-----|
A:--2--0--5------------------------------------------------------2-----0-----|
E:--------3---3--2--1--0000-3000-0000-3000-0000-3000-0000-3000---------------|


    ... ain't my bitch!           Solo's rhyth part

e:--0-------------|---------------------------------------|----------------|
B:--0-------------|---------------------------------------|----------------|
G:----------------|----------------------2-----4-----2----|-------2-----2--|
D:--------------2-|----------------2--4--2--4--4--4--2--4-|-2--4--2--4--2--|
A:5-------------2-|----------------2--4-----4-----4-----4-|-2--4-----4-----|
E:3----3--2--1--0-|---------------------------------------|----------------|
                                   this part 3 times then   this


next just change all 2's to 4's and then all 4's to 6's

The rest can easily be figured out because it just combines all the riffs.

-----------------------------   MetallicA   --------------------------------
2 x 4
-----------------

Yes!  This is the complete tab. for 2 x 4 - The following is some
explanation of symbols and the order of riffs, solos and fills.
        ~ indicates slide
        / indicates bend up
        ^ indicates bend up and release
        \ indicates slide down
        H indicates hammer-on
        P indicates pull-off
        S stands for solo
        R stands for riff
        F stands for fill

    P A T T E R N    O F    2  x  4

Intro           R1 repeat four times
                        R2 w/R3 repeat four times
Verse 1                 R4 repeat four times
                        R2 w/R3 repeat two times
Verse 2                 R4 repeat four times
Retribution!    R5 repeat four times
Chorus          R1 repeat six times
                        R2 w/R3 repeat four times
Verse 3                 R4 repeat four times
Retribution!    R5 repeat three times
Chorus                  R1 repeat six times
Solo            R1 repeat four times w/S1
Interlude & Solo        R6 w/F1
                        R7 repeat four times w/S2
                        R7 repeat four times w/S3
Intro                   R1 repeat two times
Retribution!    R5 repeat three times
Chorus          R1 repeat six times

NOTE :-  Some sections in the solos may be wrong as the lead guitar is
either masked by 'wah' or just hard to hear.  Additionally the timing is
all over the place so just listen to the song. Please post corrections!
Nothing more to say, but HERE IT IS    2 x 4
                         ^^^^^^^^^^^^^^^^^^^
TUNE DOWN HALF A STEP OR TO E FLAT
  (Intro - R1)
E | -||:- - - - - - - - - - - - - - - - - - - - - - - - :||
B | -||:- - - - - - - - - - - - - - - - - - - - - - - - :||
G | -||:- - - - - - - - - - - - - - - - - - - - - - - - :||
D | 2||:2 5~7 8 - - 2 5~7 8 - - 2 5~7 2 - - 2 5~7 2 - - :||
A | 2||:2 5~7 8 - - 2 5~7 8 - - 2 5~7 2 - - 2 5~7 2 - - :||
E | 0||:0 3~5 6 - - 0 3~5 6 - - 0 3~5 0 - - 0 3~5 0 - - :||

  (R2)
E |  ||:- - - - - - - - - - - - - - - - - - - - - - - - :||
B |  ||:- - - - - - - - - - - - - - - - - - - - - - - - :||
G |  ||:- - - - - - - - 9 - - - - - 9 - - - - - - - - - :||
D |  ||:2 - 2 5 - 2 7~8 9 - - - 7~8 9 - - - 8 - - 7 - 5 :||
A |  ||:2 - 2 5 - 2 7~8 7 - - - 7~8 7 - - - 8 - - 7 - 5 :||
E |  ||:0 - 0 3 - 0 5~6 - - - 0 5~6 - - - 0 6 - 0 5 - 3 :||

(R3w/R2 - Played with wah and semi-artificial harmonics)
E |  ||:- - - - - - - - - - - - - - - - - - - - - - - - :||
B |  ||:- - - - - - - - - - - - - - - - - - - - - - - - :||
G |  ||:- - - - - - - - - - - - - - - - - - - - - - - - :||
D |  ||:- - - - - - - - 9 - - - - - 9 - - - - - - - - - :||
A |  ||:- - - 5 - - 7~8 - - - - 7~8 - - - - 8 - - 7 - 5 :||
E |  ||:7 - 7 - - 7 - - - - - 7 - - - - - 7 - - 7 - - - :||

  (Verses - R4)
E |  ||:- - - - - - - - - - - - - - - - - - - - - - - - :||
B |  ||:- - - - - - - - - - - - - - - - - - - - - - - - :||
G |  ||:- - - - - - - - - - - - - - - - - - - - - - - - :||
D |  ||:2 - 2 5 - 2 7 - 2 - - 8~7 - 5 - - 8~7 - 5 - - - :||
A |  ||:2 - 2 5 - 2 7 - 2 - - 8~7 - 5 - - 8~7 - 5 - - - :||
E |  ||:0 - 0 3 - 0 5 - 0 - - 6~5 - 3 - - 6~5 - 3 - - - :||

(Retribution - R5)
E | -||:- - - - - - - - - - - - - - - - - - - - - - - - :||
B | -||:- - - - - - - - - - - - - - - - - - - - - - - - :||
G | -||:- - - - - - - - - - - - - - - - - - - - - - - - :||
D | 2||:2 5~7 8 - - - - - - - - 2 5~7 2 - - - - - - - - :||
A | 2||:2 5~7 8 - - - - - - - - 2 5~7 2 - - - - - - - - :||
E | 0||:0 3~5 6 - - - - - - - - 0 3~5 0 - - - - - - - - :||

  (Chorus - R1)
E | -||:- - - - - - - - - - - - - - - - - - - - - - - - :||
B | -||:- - - - - - - - - - - - - - - - - - - - - - - - :||
G | -||:- - - - - - - - - - - - - - - - - - - - - - - - :||
D | 2||:2 5~7 8 - - 2 5~7 8 - - 2 5~7 2 - - 2 5~7 2 - - :||
A | 2||:2 5~7 8 - - 2 5~7 8 - - 2 5~7 2 - - 2 5~7 2 - - :||
E | 0||:0 3~5 6 - - 0 3~5 6 - - 0 3~5 0 - - 0 3~5 0 - - :||

(Solo - S1w/wah)
E | -|| - - - - - - - -12 - - - - - - - - - - - - - - -  ||
B | -|| -15- -15- - - - - 12- - - - - - - - - - - - - -  ||
G | -|| -14- -14/ - - - - - -14-12- - 12-14^12-14 - -12  ||
D | -|| - - - - - - - - - - - - - -14 - - - - - - 14- -  ||
A | -|| - - - - - - - - - - - - - - - - - - - - - - - -  ||
E | -|| - - - - - - - - - - - - - - - - - - - - - - - -  ||
  (Solo - S1w/wah)
E | -|| - - - - - - - - - - - - - - - - - - - - - - - -  ||
B | -|| -15/- - - - - - - - - - - - - - - - - - - - - -  ||
G | -|| - - 16/^^^^^^^14^12 14- - 12-14^12- - - - - - -  ||
D | -|| - - - - - - - - - - - -14 - - - - -14 - - - - -  ||
A | -|| - - - - - - - - - - - - - - - - - - - - - - - -  ||
E | -|| - - - - - - - - - - - - - - - - - - - - - - - -  ||

(Solo - S1w/wah)
E | -|| - - - - - - - - - - - - - - - - - - - - - - - -  ||
B | -|| - - - - - - - - - - - - - - - - - - - - - - - -  ||
G | -|| - - - - - - - - - - - - - - - - - - - - - - - -  ||
D | -|| - - - - - - - - - - - - - - 14-15-17- - - - - -  ||
A | -|| - - - - - 12-14-15-14-15-17 - - - - - - - - - -  ||
E | -|| -12 13-15 - - - - - - - - - - - - - - - - - - -  ||

  (Solo - S1w/wah)
E | -|| -19P15- - 19P15 - -19P15-19P15- - 19P15 - -19P15 ||
B | -|| - - - -17 - - - 17- - - - - - -17 - - - 17- - -  ||
G | -|| - - - - - - - - - - - - - - - - - - - - - - - -  ||
D | -|| - - - - - - - - - - - - - - - - - - - - - - - -  ||
A | -|| - - - - - - - - - - - - - - - - - - - - - - - -  ||
E | -|| - - - - - - - - - - - - - - - - - - - - - - - -  ||

(Solo - S1w/wah)
E | -|| -19P15- - 19P15 - -19P15-19P15- - 19P15 - -19P15 ||
B | -|| - - - -17 - - - 17- - - - - - -17 - - - 17- - -  ||
G | -|| - - - - - - - - - - - - - - - - - - - - - - - -  ||
D | -|| - - - - - - - - - - - - - - - - - - - - - - - -  ||
A | -|| - - - - - - - - - - - - - - - - - - - - - - - -  ||
E | -|| - - - - - - - - - - - - - - - - - - - - - - - -  ||

(Solo - S1w/wah)
E | -|| -19^17-15 17-15 - -15 - - - - - - - - - - - - -  ||
B | -|| - - - - - - - - 19- - 19-17 19-15 15/ 15/15/15/  ||
G | -|| - - - - - - - - - - - - - - - - - - - - - - - -  ||
D | -|| - - - - - - - - - - - - - - - - - - - - - - - -  ||
A | -|| - - - - - - - - - - - - - - - - - - - - - - - -  ||
E | -|| - - - - - - - - - - - - - - - - - - - - - - - -  ||

  (Interlude - R6)
E | |- - - - - - - - - - - - - - - - - - - - - - - - - - - - - - - - -|
B | |- - - - - - - - - - - - - - - - - - - - - - - - - - - - - - - - -|
G | |- - - - - - - - - - - - - - - - - - - - - - - - - - - - - - - - -|
D | |2 - - - 5 - - - 7 - - - 3 - 3 3 3 3 3 3 3 3 3 3 3 3 3 3 3 - 3 - 3|
A | |2 - - - 5 - - - 7 - - - 3 - 3 3 3 3 3 3 3 3 3 3 3 3 3 3 3 - 3 - 3|
E | |0 - - - 3 - - - 5 - - - 1 - 1 1 1 1 1 1 1 1 1 1 1 1 1 1 1 - 1 - 1|

(Interlude - F1w/R6)
E | | - - - - - - - - - - - - - - - - - - - - - - - - - - - - - - - - |
B | | - - - - - - - - - - - - - - - - - - - - - - - - - - - - - - - - |
G | |9- - - - 9 - - - 9 - - - - - - - - - - - - - - - - - - - - - - - |
D | | -9- - - - 9 - - - 9 - - - - - - - - - - - - - - - - - - - - - - |
A | | - -12 10- - 12-10 - 12-10 - - - - - - - - - - - - - - - - - - - |
E | | - - - - - - - - - - - - -\- - - - - - - - - - - - - - - - - - - |

  (R7)
E | -||: - - - - - - - - - - - - - - - - :||
B | -||: - - - - - - - - - - - - - - - - :||
G | -||: - - - - - - - - - - - - - - - - :||
D | -||: 2 - - - 5 - - - 7 - - - 5 - - - :||
A | -||: 2 - - - 5 - - - 7 - - - 5 - - - :||
E | -||: 0 - - - 3 - - - 5 - - - 3 - - - :||

(Solo - S2w/wah)
E | -|| - - - - - - - - - - - - - - - - - - - - - - - - - - ||
B | -|| 15- - - - - - - - - - - - - - - - - - - - - - - - - ||
G | -|| 14/ -14/ 14 12- 14-12 -14-12 11 - 12-11 - - - - - - ||
D | -|| - - - - - - - - - - - - - - - - - - - - -14 14H16P14||
A | -|| - - - - - - - - - - - - - - - - - - - - - - - - - - ||
E | -|| - - - - - - - - - - - - - - - - - - - - - - - - - - ||

  (Solo - S2w/wah)
E | -|| - - - - - - - - - - - - - - - - - - - - - - - -  ||
B | -|| - - - - - - - - - - - - - - - - - - - - - - - -  ||
G | -|| - - - - - - - - - - - - - - - - - - - - - - - -  ||
D | -|| 12-14-12- - - - - - - - - - - - - - - - - - - -  ||
A | -|| - - - - - 12-14 12- - 12-14-12- - - - - - - - -  ||
E | -|| - - - - - - - - - - - - - - - -15 14-12 10 10~12 ||

(Solo - S2w/wah)
E | -|| - - - - - - - - - - - - - - - - - - - - - 12- -  ||
B | -|| 15 15 15-15 - - - 15-15-15- - - - - 15/15/- 15 12||
G | -|| 14/14/14/14 12 14 14/14/14-12 14- - - - - - - -  ||
D | -|| - - - - - - - - - - - - - - - - - - - - - - - -  ||
A | -|| - - - - - - - - - - - - - - - - - - - - - - - -  ||
E | -|| - - - - - - - - - - - - - - - - - - - - - - - -  ||

  (Solo - S2w/wah)
E | -|| - - - - - - - - - - - - -12 12 12 - 12-15/15 12  ||
B | -|| - - - - - - - - - - - 15- - - - - 15- - - - - -  ||
G | -|| 14/12 14- - - - - - - - - - - - - - - - - - - -  ||
D | -|| - - - - - 12~14 12- - - - - - - - - - - - - - -  ||
A | -|| - - - - - - - - - - - - - - - - - - - - - - - -  ||
E | -|| - - - - - - - - - - - - - - - - - - - - - - - -  ||

(Solo - S2w/wah)
E | -|| 12 15 12-15 17/-15-  ||
B | -|| - - - - - - - - - -  ||
G | -|| - - - - - - - - - -  ||
D | -|| - - - - - - - - - -  ||
A | -|| - - - - - - - - - -  ||
E | -|| - - - - - - - - - -  ||

  (Solo - S3w/wah)
E | -|| - - - - - - - - - - - - - - - - - - - - - - - -  ||
B | -|| 15  15- -12H15P12 - - - - - - - - - - - - - - -  ||
G | -|| 14/ 14/ - - - - - -12H14P12 - -12H14P12 11- - -  ||
D | -|| - - - - - - - - - - - - - - - - - - - - - - - -  ||
A | -|| - - - - - - - - - - - - - - - - - - - - - - - -  ||
E | -|| - - - - - - - - - - - - - - - - - - - - - - - -  ||

 (Solo - S3w/wah)
E | -|| - - - - - - - - - - - - - - - - - - - - - - - -  ||
B | -|| - - - - - - - - - - - - - - - - - - - - - - - -  ||
G | -|| -12-11H12P11- 12-11 - -12 - - - - - - - - - - -  ||
D | -|| - - - - - - - - - - 14- - 12- - - - - - - - - -  ||
A | -|| - - - - - - - - - - - - - - -12 12~14 - 14 141414||
E | -|| - - - - - - - - - - - - - - - - - - - - - - - -  ||

   (Solo - S3w/wah)
E | -|| - - - - - - - - - - - - - - - - - - - - - - - - - - -  ||
B | -|| - - - - - - - - - - - - - - - - - - - - - - - - - - -  ||
G | -|| - - - - - - - - - - - - - - - 121212121212121212121212 ||
D | -|| - - - - - - - - - - - - 12 14 - - - - - - - - - - - -  ||
A | -|| -12 -15-1515-12 151515- - - - - - - - - - - - - - - -  ||
E | -|| - - - - - - - - - - - - - - - - - - - - - - - - - - -  ||

(Solo - S3w/wah)
E | -|| - - - - - - - - -12 - - - - - - - - - - - - - -  ||
B | -|| -15/-15^12- - -12 - 15-12 - -12 - - - - - - - -  ||
G | -|| - - - - - - 14/ - - - - - 14- - - - 14- - 12- -  ||
D | -|| - - - - - - - - - - - - - - - - 14- - -14 - - -  ||
A | -|| - - - - - - - - - - - - - - - - - - - - - - - -  ||
E | -|| - - - - - - - - - - - - - - - - - - - - - - - -  ||

  (Solo - S3w/wah)
E | -|| - 17/ 17/17/17^15- - 15 - - - - - - - - - - -12  ||
B | -|| - - - - - - - - - 17- - - - 15/ 15^12 - - -12 -  ||
G | -|| - - - - - - - - - - - - - - - - - - - - 14/ - -  ||
D | -|| - - - - - - - - - - - - - - - - - - - - - - - -  ||
A | -|| - - - - - - - - - - - - - - - - - - - - - - - -  ||
E | -|| - - - - - - - - - - - - - - - - - - - - - - - -  ||

(Solo - S3w/wah)
E | -|| - 15 12 12H15P12- - -12 - - - - - - -  ||
B | -|| - - - - - - - - - 15- - 12-15 12 15 -  ||
G | -|| - - - - - - - - - - - - - - - - - - -  ||
D | -|| - - - - - - - - - - - - - - - - - - -  ||
A | -|| - - - - - - - - - - - - - - - - - - -  ||
E | -|| - - - - - - - - - - - - - - - - - - -  ||

  (Solo - S3w/wah)
E | -|| - - - - - 14- - 14-19 - -19-22/ - - -  ||
B | -|| -12 - -12 - -15 - - - 20- - - - - - -  ||
G | -|| - - 12- - - - - - - - - - - - - - - -  ||
D | -|| - - - - - - - - - - - - - - - - - - -  ||
A | -|| - - - - - - - - - - - - - - - - - - -  ||
E | -|| - - - - - - - - - - - - - - - - - - -  ||

-----------------------------   MetallicA   --------------------------------
The House That Jack Built
=========================

 INTRO RIFF
|-----------------------------|
|-----------------------------|
|-----------------------------|
|---------3---------------5---|
|-----3---------------5-------|
|-1-------------1/3-----------|


 This is played with the above . . .
|-----------------------------|
|-6-/-8-----------------------|
|-5-/-7-----------------------|
|-----------------------------|
|-----------------------------|
|-----------------------------|


 Leads into the next riff . . .
|-------------------------------|
|-------------------------------|
|-------------------------------|
|-3-3-3-3-3-3 3-3-3-3-3-3-3-3-3-|
|-3-3-3-3-3-3 3-3-3-3-3-3-3-3-3-|
|-1-1-1-1-1-1-1-1-1-1-1-1-1-1-1-|

|-----------------------------|-------------------------------|
|-----------------------------|-----------0-------0-----------|
|-----------------------------|-------2-------------------0---|
|-----5---3p5p3p0---2-b-3-b-2-|--/3----------/2-------2-------|
|-----------------------------|-------------------------------|
|-0---------------------------|-------------------------------|


 Verse Riff - Play three times
|-------------------------------------|
|-------------------------------------|
|-------------------------------------|
|-------------------------------------|
|-7-8-----------7-8-------------------|
|-5/6---0---0---5/6---0---0---0-0---0-|

 Note these slides, the first one is like a grace note and should be played
 quickly

 Then play this - (the first time this is played is right after
 Jaymz sings, "...just to have them closed again.")
|----------------------------------------|
|----------------------------------------|
|----------------------------------------|
|----------------------------------------|
|3-4-------4-5-------5-6-------6-7-------|
|1/2---0-0-2/3---0-0-3/4---0-0-4/5---0-0-|


Chorus
|---------------------------------------------------------------------|
|---------------------------------------------------------------------|
|-----------------5---7-------------------------------5---------------|
|---------5---7---3---5---5---7---------------5---7---3---5---3-3-----|
|-3---5---3---5-----------3---5---5---3---5---3---5-------3---1-1-----|
|-1---3---------------------------3---1---3---------------------------|

And that's about it . . .

-----------------------------   MetallicA   --------------------------------
Until It Sleeps (version 1)
---------------------------
Verse: Clean guitar.

     Am
     |     |     |     |        |     |     |     |
>Eb|--------0-----------------|--------------------------|
>Bb|-----------3-----1-----0--|--------------------------|
>Gb|--------------------------|-----2-----0--------------|
>Db|-----2--------------------|--------------------------|
>Ab|--0-----------------------|--------------------------|
>Eb|--------------------------|--------------------------|

>           v Push down ever so slightly on your trem bar
>             here to get the surf guitar effect.
>     |     |     |     |        |     |     |     |
>Eb|--0-----------------------|--------------------------|
>Bb|--1-----------------------|--------------------------|
>Gb|--2-----------------------|--------------------------|
>Db|--2-----------------------|--------------------------|
>Ab|--0-----------------------|--------------------------|
>Eb|--------------------------|--------------------------|
>            "I run but it stays right by my side..."

>                                               v Truckload of distortion
>     Am                                          enters here.
>     |     |     |     |        |     |     |     |
>Eb|--------0-----------------|--------------------------|
>Bb|-----------3-----1-----0--|--------------------------|
>Gb|--------------------------|-----2-----0--------------|
>Db|-----2--------------------|-----------------5--5--5--|
>Ab|--0-----------------------|-----------------5--5--5--|
>Eb|--------------------------|-----------------3--3--3--|

>Chorus 1:

>     |     |     |     |        |     |     |     |
>Eb|--------------------------|----------------------------|
>Bb|--------------------------|----------------------------|
>Gb|--------5-----7--5-----4--|-----5-----4----b5-r4-------|
>Db|--2-----7-----7--7-----5--|-----5-----5----------------|
>Ab|--0--0-----0--------0-----|--------0-------------------|
>Eb|--------------------------|----------------------------|
>              pm       pm             pm

>           "So tear me open, pull me out..."
>
>     |     |     |     |        |     |     |     |
>Eb|--------------------------|----------------------------|
>Bb|--------------------------|----------------------------|
>Gb|--------5-----7--5-----4--|-----5-----2----b3-r2-------|
>Db|--2-----7-----7--7-----5--|-----5-----3----------------|
>Ab|--0--0-----0--------0-----|--------0-------------------|
>Eb|--------------------------|----------------------------|
>              pm       pm             pm

>     |     |     |     |        |     |     |     |
>Eb|--------------------------|----------------------------|
>Bb|--------------------------|----------------------------|
>Gb|--------5-----7--5-----4--|-----5-----4----b5-r4-------|
>Db|--2-----7-----7--7-----5--|-----5-----5----------------|
>Ab|--0--0-----0--------0-----|--------0-------------------|
>Eb|--------------------------|----------------------------|
>              pm       pm             pm

>     |     |     |     |        |     |     |     |
>Eb|--------------------------|----------------------------|
>Bb|--------------------------|----------------------------|
>Gb|--------5-----7--5-----4--|-----5------9b10r9h10-------|
>Db|--2-----7-----7--7-----5--|-----5------7---------------|
>Ab|--0--0-----0--------0-----|--------0---0---------------|
>Eb|--------------------------|----------------------------|
>              pm       pm             pm

> Verse 2:

>     Am
>     |     |     |     |        |     |     |     |
>Eb|--------0-----------------|--------------------------|
>Bb|-----------3-----1-----0--|--------------------------|
>Gb|--------------------------|-----2-----0--------------|
>Db|-----2--------------------|--------------------------|
>Ab|--0-----------------------|-----------------------0--|
>Eb|--------------------------|-----------------0--3-----|

>     Am                         G           F
>     |     |     |     |        |     |     |     |
>Eb|--------0-----------------|--------2-----------1-----|
>Bb|-----------3-----1--------|--------2-----------1-----|
>Gb|--------------------------|--------0-----------2-----|
>Db|-----2--------------------|--------0-----------3-----|
>Ab|--------------------------|--------2-----------3-----|
>Eb|-----------------------0--|--3-----3-----1-----1-----|

>     Am
>     |     |     |     |        |     |     |     |
>Eb|--0-----------------------|----------------------------|
>Bb|--1-----------------------|----------------------------|
>Gb|--2-----------------------|----------------------------|
>Db|--2-----------------------|----------------------------|
>Ab|--0-----------------------|----------------------------|
>Eb|--------------------------|----------------------------|
>           "Just like the curse, just like the stray..."

>     Am
>     |     |     |     |        |     |     |     |
>Eb|--------0-----------------|--------------------------|
>Bb|-----------3-----1-----0--|--------------------------|
>Gb|--------------------------|-----2-----0--------------|
>Db|-----2--------------------|--------------------------|
>Ab|--0-----------------------|--------------------------|
>Eb|--------------------------|--------------------------|


>     |     |     |     |        |     |     |     |
>Eb|--0-----------------------|--------------------------|
>Bb|--1-----------------------|--------------------------|
>Gb|--2-----------------------|--------------------------|
>Db|--2-----------------------|--------------------------|
>Ab|--0-----------------------|--------------------------|
>Eb|--------------------------|--------------------------|
>           "You feed it once and now it stays..."

>                                               v Distortion
>     Am                                          again.
>     |     |     |     |        |     |     |     |
>Eb|--------0-----------------|--------------------------|
>Bb|-----------3-----1-----0--|--------------------------|
>Gb|--------------------------|-----2-----0--------------|
>Db|-----2--------------------|-----------------5--5--5--|
>Ab|--0-----------------------|-----------------5--5--5--|
>Eb|--------------------------|-----------------3--3--3--|

>Chorus 2:

>     |     |     |     |        |     |     |     |
>Eb|--------------------------|----------------------------|
>Bb|--------------------------|----------------------------|
>Gb|--------5-----7--5-----4--|-----5-----4----b5-r4-------|
>Db|--2-----7-----7--7-----5--|-----5-----5----------------|
>Ab|--0--0-----0--------0-----|--------0-------------------|
>Eb|--------------------------|----------------------------|
>              pm       pm             pm

>     |     |     |     |        |     |     |     |
>Eb|--------------------------|------------------------------|
>Bb|--------------------------|------------------------------|
>Gb|--------5-----7--5-----7--|-b9-r7-p5--7-b9r-7-p5h7p5p7h5-|
>Db|--2-----7-----7--7--------|------------------------------|
>Ab|--0--0-----0--------0-----|------------------------------|
>Eb|--------------------------|------------------------------|
>              pm       pm             pm

>     |     |     |     |        |     |     |     |
>Eb|--------------------------|----------------------------|
>Bb|--------------------------|----------------------------|
>Gb|--------5-----7--5-----4--|-----5-----4----b5-r4-------|
>Db|--2-----7-----7--7-----5--|-----5-----5----------------|
>Ab|--0--0-----0--------0-----|--------0-------------------|
>Eb|--------------------------|----------------------------|
>              pm       pm             pm

>     |     |     |     |        |     |     |     |
>Eb|--------------------------|----------------------------|
>Bb|--------------------------|----------------------------|
>Gb|--------5-----7--5-----4--|-----5-----2-----3----------|
>Db|--2-----7-----7--7-----5--|-----5-----3-----3----------|
>Ab|--0--0-----0--------0-----|--------0-------------------|
>Eb|--------------------------|------------------------12\-|
>              pm       pm             pm

>                                            ???????
>     |     |     |     |        |     |     |     |
>Eb|--------------------------|----------------------------|
>Bb|--------------------------|----------------------------|
>Gb|--------------------------|--------------------11h12p11|
>Db|--------5-----7--5-----4--|-----5-----5--4-----12------|
>Ab|--------7-----7--7-----5--|-----5-----5--5-------------|
>Eb|--0--------0--------0-----|--------0-------------------|
>              pm       pm             pm

>     |     |     |     |        |     |     |     |
>Eb|--------------------------|----------------------------|
>Bb|--------------------------|----------------------------|
>Gb|--------------------------|----------------------------|
>Db|--------5-----7--5-----4--|-----5-----5----------------|
>Ab|--------7-----7--7-----5--|-----5-----6--------7\------|
>Eb|--0--------0--------0-----|--------0-------0-0-0-------|
>              pm       pm             pm

>     |     |     |     |        |     |     |     |
>Eb|--------------------------|----------------------------|
>Bb|--------------------------|----------------------------|
>Gb|--------------------------|--------------------11h12p11|
>Db|--------5-----7--5-----4--|-----5-----5--4-----12------|
>Ab|--------7-----7--7-----5--|-----5-----5--5-------------|
>Eb|--0--------0--------0-----|--------0-------------------|
>              pm       pm             pm

>     |     |     |     |        |     |     |     |
>Eb|--------------------------|----------------------------|
>Bb|--------------------------|----------------------------|
>Gb|--------------------------|----------------------------|
>Db|--------5-----7--5-----4--|-----5-----5----------------|
>Ab|--------7-----7--7-----5--|-----5-----6--------7\------|
>Eb|--0--------0--------0-----|--------0-------0-0-0-------|
>              pm       pm             pm

> Verse 3:

>     Am
>     |     |     |     |        |     |     |     |
>Eb|--------0-----------------|--------------------------|
>Bb|-----------3-----1-----0--|--------------------------|
>Gb|--------------------------|-----2-----0--------------|
>Db|-----2--------------------|--------------------------|
>Ab|--0-----------------------|-----------------------0--|
>Eb|--------------------------|-----------------0--3-----|

>     Am                         G           F
>     |     |     |     |        |     |     |     |
>Eb|--------0-----------------|--------2-----------1-----|
>Bb|-----------3-----1--------|--------2-----------1-----|
>Gb|--------------------------|--------0-----------2-----|
>Db|-----2--------------------|--------0-----------3-----|
>Ab|--------------------------|--------2-----------3-----|
>Eb|-----------------------0--|--3-----3-----1-----1-----|

>     Am
>     |     |     |     |        |     |     |     |
>Eb|--0-----------------------|----------------------------|
>Bb|--1-----------------------|----------------------------|
>Gb|--2-----------------------|----------------------------|
>Db|--2-----------------------|----------------------------|
>Ab|--0-----------------------|----------------------------|
>Eb|--------------------------|----------------------------|
>           So tell me why you've chosen me...

>     Am
>     |     |     |     |        |     |     |     |
>Eb|--------0-----------------|--------------------------|
>Bb|-----------3-----1-----0--|--------------------------|
>Gb|--------------------------|-----2-----0--------------|
>Db|-----2--------------------|--------------------------|
>Ab|--0-----------------------|--------------------------|
>Eb|--------------------------|--------------------------|


>     |     |     |     |        |     |     |     |
>Eb|--0-----------------------|--------------------------|
>Bb|--1-----------------------|--------------------------|
>Gb|--2-----------------------|--------------------------|
>Db|--2-----------------------|--------------------------|
>Ab|--0-----------------------|--------------------------|
>Eb|--------------------------|--------------------------|
>           Don't want your grip, don't want your greed...

>                                               v Distortion
>     Am                                          again.
>     |     |     |     |        |     |     |     |
>Eb|--------0-----------------|--------------------------|
>Bb|-----------3-----1-----0--|--------------------------|
>Gb|--------------------------|-----2-----0--------------|
>Db|-----2--------------------|-----------------5--5--5--|
>Ab|--0-----------------------|-----------------5--5--5--|
>Eb|--------------------------|-----------------3--3--3--|

>Chorus 3:

>     |     |     |     |        |     |     |     |
>Eb|--------------------------|----------------------------|
>Bb|--------------------------|----------------------------|
>Gb|--------5-----7--5-----4--|-----5-----4----b5-r4-------|
>Db|--2-----7-----7--7-----5--|-----5-----5----------------|
>Ab|--0--0-----0--------0-----|--------0-------------------|
>Eb|--------------------------|----------------------------|
>              pm       pm             pm

>     |     |     |     |        |     |     |     |
>Eb|--------------------------|------------------------------|
>Bb|--------------------------|------------------------------|
>Gb|--------5-----7--5-----7--|-b9-r7-p5--7-b9r-7-p5h7p5p7h5-|
>Db|--2-----7-----7--7--------|------------------------------|
>Ab|--0--0-----0--------0-----|------------------------------|
>Eb|--------------------------|------------------------------|
>              pm       pm             pm
>
>     |     |     |     |        |     |     |     |
>Eb|--------------------------|----------------------------|
>Bb|--------------------------|----------------------------|
>Gb|--------5-----7--5-----4--|-----5-----4----b5-r4-------|
>Db|--2-----7-----7--7-----5--|-----5-----5----------------|
>Ab|--0--0-----0--------0-----|--------0-------------------|
>Eb|--------------------------|----------------------------|
>              pm       pm             pm

>     |     |     |     |        |     |     |     |
>Eb|--------------------------|----------------------------|
>Bb|--------------------------|----------------------------|
>Gb|--------5-----7--5-----4--|-----5-----2-----3----------|
>Db|--2-----7-----7--7-----5--|-----5-----3-----3----------|
>Ab|--0--0-----0--------0-----|--------0-------------------|
>Eb|--------------------------|------------------------12\-|
>              pm       pm             pm

>                                            ???????
>     |     |     |     |        |     |     |     |
>Eb|--------------------------|----------------------------|
>Bb|--------------------------|----------------------------|
>Gb|--------------------------|--------------------11h12p11|
>Db|--------5-----7--5-----4--|-----5-----5--4-----12------|
>Ab|--------7-----7--7-----5--|-----5-----5--5-------------|
>Eb|--0--------0--------0-----|--------0-------------------|
>              pm       pm             pm

>     |     |     |     |        |     |     |     |
>Eb|--------------------------|----------------------------|
>Bb|--------------------------|----------------------------|
>Gb|--------------------------|----------------------------|
>Db|--------5-----7--5-----4--|-----5-----5----------------|
>Ab|--------7-----7--7-----5--|-----5-----6--------7\------|
>Eb|--0--------0--------0-----|--------0-------0-0-0-------|
>              pm       pm             pm

>     |     |     |     |        |     |     |     |
>Eb|--------------------------|----------------------------|
>Bb|--------------------------|----------------------------|
>Gb|--------------------------|--------------------11h12p11|
>Db|--------5-----7--5-----4--|-----5-----5--4-----12------|
>Ab|--------7-----7--7-----5--|-----5-----5--5-------------|
>Eb|--0--------0--------0-----|--------0-------------------|
>              pm       pm             pm

>     |     |     |     |        |     |     |     |
>Eb|--------------------------|----------------------------|
>Bb|--------------------------|----------------------------|
>Gb|--------------------------|----------------------------|
>Db|--------5-----7--5-----4--|-----5-----5----------------|
>Ab|--------7-----7--7-----5--|-----5-----6--------7\------|
>Eb|--0--------0--------0-----|--------0-------0-0-0-------|
>              pm       pm             pm


>Interlude:
>                                             Repeat 3 times.
>     |     |     |     |        |     |     |     |
>Eb|--0-----------------------|------------------------------||
>Bb|--1-----------------------|------------------------------||
>Gb|--2-----------------------|------------------------------||o
>Db|--2-----------------------|------------------------------||o
>Ab|--0-----------------------|------------------------------||
>Eb|--------------------------|------------------------------||

>     |     |     |     |        |     |     |     |
>Eb|--0-----------------------|---------------------------|
>Bb|--1-----------------------|---------------------------|
>Gb|--2-----------------------|---------------------------|
>Db|--2-----------------------|---------------------------|
>Ab|--0-----------------------|-----------------0--2--3---|
>Eb|--------------------------|---------------------------|

>
>     |     |     |     |        |     |     |     |
>Eb|-----------0--------------|-----------------------------||
>Bb|-----------------3-----1--|-----0-----------------------||
>Gb|--------------------------|-----------------------------||o
>Db|-----2--------------------|-----------------------------||o
>Ab|--0-----------------------|-----------------------------||
>Eb|--------------------------|-----------------------------||

>
>     |     |     |     |        |     |     |     |
>Eb|-----------0--------------|-----0----------------------|
>Bb|-----------------3-----1--|-----0----------------------|
>Gb|--------------------------|-----2----------------------|
>Db|-----2--------------------|-----2----------------------|
>Ab|--0-----------------------|-----0----------------------|
>Eb|--------------------------|----------------------------|

>     |     |     |     |        |     |     |     |
>Eb|--0-----------------------|----------------------------|
>Bb|--1-----------------------|----------------------------|
>Gb|--2-----------------------|----------------------------|
>Db|--2-----------------------|----------------------------|
>Ab|--0-----------------------|----------------------------|
>Eb|--------------------------|----------------------------|

>Chorus 4:

>     |     |     |     |        |     |     |     |
>Eb|--------------------------|----------------------------|
>Bb|--------------------------|----------------------------|
>Gb|--------5-----7--5-----4--|-----5-----4----b5-r4-------|
>Db|--2-----7-----7--7-----5--|-----5-----5----------------|
>Ab|--0--0-----0--------0-----|--------0-------------------|
>Eb|--------------------------|----------------------------|
>              pm       pm             pm

>     |     |     |     |        |     |     |     |
>Eb|--------------------------|------------------------------|
>Bb|--------------------------|------------------------------|
>Gb|--------5-----7--5-----7--|-b9-r7-p5--7-b9r-7-p5h7p5p7h5-|
>Db|--2-----7-----7--7--------|------------------------------|
>Ab|--0--0-----0--------0-----|------------------------------|
>Eb|--------------------------|------------------------------|
>              pm       pm             pm
>
>     |     |     |     |        |     |     |     |
>Eb|--------------------------|----------------------------|
>Bb|--------------------------|----------------------------|
>Gb|--------5-----7--5-----4--|-----5-----4----b5-r4-------|
>Db|--2-----7-----7--7-----5--|-----5-----5----------------|
>Ab|--0--0-----0--------0-----|--------0-------------------|
>Eb|--------------------------|----------------------------|
>              pm       pm             pm

>     |     |     |     |        |     |     |     |
>Eb|--------------------------|---------------------------|
>Bb|--------------------------|---------------------------|
>Gb|--------5-----7--5-----4--|-----5-----2-----3---------|
>Db|--2-----7-----7--7-----5--|-----5-----3-----3---------|
>Ab|--0--0-----0--------0-----|--------0--------------5---|
>Eb|--------------------------|-----------------------3---|
>              pm       pm             pm

>                                           Repeat 4 times.
>     |     |     |     |        |     |     |     |
>Eb|--------------------------|-----------------------------||
>Bb|--------------------------|-----------------------------||
>Gb|--------------------------|-----------------------------||o
>Db|--2--2--0--2--2--2--------|--2--2--0--3--3--3-----------||o
>Ab|--0--0--0--0--0--0-----5--|--0--0--0--0--0--0-----5-----||
>Eb|-----------------------3--|-----------------------3-----||

>
>     |     |     |     |        |     |     |     |
>Eb|--------0-----------------|--------------------------|
>Bb|-----------3-----1-----0--|--------------------------|
>Gb|--------------------------|-----2-----0-----2--------|
>Db|-----2--------------------|--------------------------|
>Ab|--0-----------------------|--------------------------|
>Eb|--------------------------|--------------------0--3--|

>     |     |     |     |        |     |     |     |
>Eb|--------0-----------------|--------------------------|
>Bb|-----------3-----1-----0--|--------------------------|
>Gb|--------------------------|-----2-----0-----2--------|
>Db|-----2--------------------|--------------------------|
>Ab|--0-----------------------|--------------------------|
>Eb|--------------------------|--------------------------|

>     |     |     |     |        |     |     |     |
>Eb|--0-----------------------|--------------------------||
>Bb|--1-----------------------|--------------------------||
>Gb|--2-----------------------|--------------------------||
>Db|--2-----------------------|--------------------------||
>Ab|--0-----------------------|--------------------------||
>Eb|--------------------------|--------------------------||

>Tabbed by Chris J. Rizzo
>cjr68797@pegasus.cc.ucf.edu
>07/08/96

-----------------------------   MetallicA   --------------------------------
Until It Sleeps (version 2)
---------------------------

Transcribed by Luis Soro

Tune Guitars down 1/2 step

Main Line:                                              Fill2(at 3rd verse)
|---------0------------------5--|-------0-------------------------|
|------------3--1--0---------5--|----------3--1--0----------------|
|---------------------2--0---5--|-------------------2--0----------|
|------2---------------------7--|----2----------------------------|
|---0------------------------7--|--0------------------------------|
|----------------------------5--|---------------------------------|
Where Do I take this pain of mine?I run but it stays right by my side
Just Like a curse just like a stray,You feed it once and now it stays
So tell me why you've chosen me,Don't want your grip don't want your greed

Chorus:Guitar1                                          Fill 1 (at bottom)
|-----------|------------------------------------------------------|
|-----------|.----------------------------------------------------.|
|-----------|--2---5--7--5---4--4--5---2--2--3---------------------|
|---5--5--5-|--2---7--7--7---5--5--5---3--3--3---------------------|
|---5--5--5-|.-0--------------------------------------------------.|
|---3--3--3-|------------------------------------------------------|

Chorus:Fill2(4th time each chorus)
|------------------------------------------------------------------|
|.--------------------------5--5--6-------------------------------.|
|----2---5--7--5---4--4--5--5--5--5--5-----------------------------|
|----2---7--7--7---5--5--5-----------5-----------------------------|
|.---0------------------------------------------------------------.|
|------------------------------------------------------------------|
     So hold me Until it Sleeps.........

Chorus:Guitar2
|-----------|------------------------------------------------------|
|-----------|------------------------------------------------------|
|-----------|------------------------------------------------------|
|---5--5--5/|--7--7--7--7--7--7---5/7--7--7--7---3--3--3-----------|
|---5--5--5/|--7--7--7--7--7--7---5/7--7--7--7---3--3--3-----------|
|---3--3--3/|--5--5--5--5--5--5---3/5--5--5--5---1--1--1-----------|
          sl. So tear me open.... sl.

|-----------------------------------------------------------------|
|-----------------------------------------------------------------|
|----------------------------------5--5--5------------------------|
|---5/7--7--7--7--7--7---5--5--5---5--5--5------------------------|
|---5/7--7--7--7--7--7---5--5--5---3--3--3------------------------|
|---3/5--5--5--5--5--5---3--3--3----------------------------------|
    sl. The things inside that scream and shout....


|-----------------------------------------------------------------|
|-----------------------------------------------------------------|
|-----------------------------------------------------------------|
|---5/7--7--5/7--7---5--5--5---3--3--3----------------------------|
|---5/7--7--5/7--7---5--5--5---3--3--3----------------------------|
|---3/5--5--3/5--5---3--3--3---1--1--1----------------------------|
    sl.      sl. And the pain still aches me.......


|-----------------------------------------------------------------|
|-----------------------------------------------------------------|
|-----------------------------7--7--7-----------------------------|
|---5/7--7--5/7--7---5--5--5--7--7--7--5/7------------------------|
|---5/7--7--5/7--7---5--5--5--5--5--5--5/7------------------------|
|---3/5--5--3/5--5---3--3--3-----------3/5------------------------|
    sl.      sl.So hold me,.......     sl.

Bridge:                                                 ~~~~
|---------0--------------------------0------------------5----------|
|------------3--1--0--------------------3--1---------0--5----------|
|---------------------2--0----------------------0----0-------------|
|------2----------------------------------------0----3-------------|
|---0--------------------------0----------------2----3-------------|
|---------------------------3-----------------3----1---------------|
 (Go back to main,then chorus,then to post chorus)


Post Chorus:Guitar1
|------------------------------------------------------------------|
|.----------------------------------------------------------------.|
|------------------------------------------------------------------|
|------5--7--5---4--4--4--4--4--14/---5--7--5---4--4--4--4--4--4---|
|.-----5--7--5---5--5--5--6--7--14/---5--7--5---5--5--5--5--6--7--.|
|---0--------------------------------------------------------------|
                          sl.

Post Chorus:Guitar2
|------------------------------------------------------------------|
|.----------------------------------------------------------------.|
|---16--14--12-----------------------------------------------------|
|--------------12--13--14---5--7--5---4--4--4--4--4----------------|
|.--------------------------5--7--5---5--5--5--6--7---------------.|
|------------------------------------------------------------------|

(Go Back to bridge,then main,then chorus,and to post chorus)

Solo:With Wah
|---17--17--17---19--19--19---17--17---20--20--20---19--19--19-----|
|---17--17--17---17--17--17---17--17---17--17--17---17--17--17-----|
|------------------------------------------------------------------|
|------------------------------------------------------------------|
|------------------------------------------------------------------|
|------------------------------------------------------------------|

              ^     ^
|---17--17---17----17---0-p-0---0---0---0---------------^----------|
|---17--17---20----20--17--15--17---17--15--12-15------15----------|
|----------Bend-20-----------------------------14--12--14---12-----|
|-----------Full---------------------------------------1/2------14-|
|------------------------------------------------------------------|
|------------------------------------------------------------------|


|------------------------------------------------------------------|
|---10--10--10---12--12--12--12----13--13--13---12--12--12--12-----|
|----9---9---9----9---9---9-----9---9---9---9----9---9---9-----9---|
|------------------------------------------------------------------|
|------------------------------------------------------------------|
|------------------------------------------------------------------|

    ^      ^    ^
|--17-----17---17---0--0--0---0--0--0--0--0----------------------------------|
|--20-----20---20--17-15-17--17-15--17-15-12-14-----------------------~~~~---|
|Bend-20-------------------------------------12-12---------------------14--14|
|Full---------------------------------------------14---~~~~---12--14---------|
|------------------------------------------------------12--14----------------|
|----------------------------------------------------------------------------|


|------------------------------------------------------------------|
|-------------------------~~~~---------------------------12--15----|
|---------------------12--12----------------------12--14-----------|
|-------------12--14-----------------------12--14------------------|
|--12--14--15-------------------12--14--15-------------------------|
|------------------------------------------------------------------|

             ^  ^   ^   ^
|-----------17--17--17--17-----------------------------------------|
|--17--19---20--20--20--20-----------------------------------------|
|------------All-20s-Full------------------------------------------|
|------------------------------------------------------------------|
|------------------------------------------------------------------|
|------------------------------------------------------------------|

Now go to chorus and play it twice,The 2nd time Both guitars play
Guitar2's part,Finally,go back to the main line and let the bass
finish it off.

Fill 1:
|-----------------------------|
|-------------------~~~~------|
|----7/9--5-----7--5----------|
|------------7----------------|
|-----------------------------|
|-----------------------------|
There's things inside without a care

Fill 2
|---5------5------5-----5-----|
|-----5-------5-----5-----5---|
|-------5-------5-----5-------|
|-----------------------------|
|-----------------------------|
|-----------------------------|

-----------------------------   MetallicA   --------------------------------
King Nothing
---------------------------
Transcribed by:Luis Soro

Main Riff:       Tune guitars 1/2 step down    Fill1 (at bottom)
|--------------------------------------------------------|
|--------------------------------------------------------|
|--------------------------------------------------------|
|------------------5---------5--------8----7-------------|
|------5-6-7---5/7---7---5/7---7-------------------------|
|---0------------------------------6-----5---------------|
              sl.        sl.

    E5    G5 E5   Bb5 A5 G5 E5    G5 E5 Bb5   A5 G5
|--------------------------------------------------------|
|--------------------------------------------------------|
|--------------------------------------------------------|
|---2--2--5--2-----8--7--5--2--2--5--2--8--8--7--5-------|
|---2--2--5--2-----8--7--5--2--2--5--2--8--8--7--5-------|
|---0--0--3--0--0--6--5--3--0--0--3--0--6--6--5--3-------|
 Wish I may,Wish I might,Have this I wish tonight,Are You satisfied?
 Hot and cold,bought and sold,a heart as hard as gold,Are you satisfied?


    E5    G5 E5   Bb5 A5 G5 E5    G5 E5 Bb5   A5 G5
|--------------------------------------------------------|
|--------------------------------------------------------|
|--------------------------------------------------------|
|---2--2--5--2-----8--7--5--2--2--5--2--8--8--7--5-------|
|---2--2--5--2-----8--7--5--2--2--5--2--8--8--7--5-------|
|---0--0--3--0--0--6--5--3--0--0--3--0--6--6--5--3-------|
 Dig for gold,Dig for fame,You dig to make your name,Are you pacified?
 Wish I might,Wish I may,You wish your life away,Are you pacified?


|---------------------------|----------------------------|Not sure about
|---------------------------|---------------^------p-----|this part,could
|-----------7---------------|------------7--9--7--9-7--7-|be wrong
|---7/9--9----9--7--9-------|----7/9--9----Bend----------|
|----------------------8----|--------------Full----------|
|---------------------------|----------------------------|
 All the wants you waste     All the things you've chased

 E5                 G5                   F#5
|---------------------------|----------------------------|
|---------------------------|----------------------------|
|---------------------------|----------------------------|
|2-------------------5------|------------4---------------|
|2-------------------5------|------------4---------------|
|0-------------------3------|------------2---------------|
 Then it all crashes down,and you break your crown

            E5
|---------------------------|----------------------------|
|---------------------------|----------------------------|
|---------------------------|----------------------------|
|-----------2--2--2--2--2--2|-2--2--2--2--2--2-----2-----|
|-----------2--2--2--2--2--2|-2--2--2--2--2--2-----2-----|
|-----------0--0--0--0--0--0|-0--0--0--0--0--0-----0-----|
 And you point your finger but there's no one around

              G5                        F#5
|---------------------------|----------------------------|
|---------------------------|----------------------------|
|---------------------------|----------------------------|
|--------------5------------|-----------4----------------|
|--------------5------------|-----------4----------------|
|--------------3------------|-----------2----------------|
 Just want one thing,Just to play the King

                   F5
|---------------------------|----------------------------|
|---------------------------|----------------------------|
|---------------------------|----------------------------|
|------------------3--3--3--|--3--3--3--3--3--3--3--3--3-|
|------------------3--3--3--|--3--3--3--3--3--3--3--3--3-|
|------------------1--1--1--|--1--1--1--1--1--1--1--1--1-|
 But the castle's crumbled and you're left with just a name


|---13---------------------------------------------------|
|---15---------------------------------------------------|
|Unison bend---------------------------------------------|
|Bend 15 Full--------------------------------------------|
|--------------------------------------------------------|
|--------------------------------------------------------|
 Where's your crown King Nothing?

 Fill 1
|-----------------------------------------------------------------------|
|--12------12-------------p--------------h--p--------------h--p---------|
|--12------12-------12--14-12------12--12-14-12------12--12-14-12-------|
|------14------14--------------14----------------14----------------14---|
|-----------------------------------------------------------------------|
|-----------------------------------------------------------------------|

-----------------------------   MetallicA   --------------------------------
Hero Of The Day
---------------------------

Tablature by Paul Meller

* Guitar should be tuned 1/2 step down.

Intro.
|----------------------------------------------------------------|
|----------------------------------------------------------------|
|----------------2-------2-------2-------2-------4-----4-----4---|
|--------------2-------2-------2-------2-------6---4-----6-----6-|
|------0-----0-------2-------4-------5-------7-------7-----7-----|
|---2-----2------------------------------------------------------|

|------------------------------------------------------------------------|
|------------------------------------------------------------------------|
|----------------2-------2-------2-------2---4---4-----4-----4---4p6p4---|
|--------------2-------2-------2-------2-----6-6---4-----6-----6-------6\|
|------0-----0-------2-------4-------5-------7-------7-----7-------------|
|---2-----2--------------------------------------------------------------|


Verse.
|----------------------------------------------------------------|
|----------------------------------------------------------------|
|----------------2-------2-------2-------2-------4-----4-----4---|
|--------------2-------2-------2-------2-------6---4-----6-----6-|
|------0-----0-------2-------4-------5-------7-------7-----7-----|
|---2-----2------------------------------------------------------|

|----------------------------------------------------------------|
|----------------------------------------------------------------|
|----------------2-------2-------2-------2-------4-----4---4-4-4-|
|--------------2-------2-------2-------2-------6---4-----6-6-6-6-|
|------0-----0-------2-------4-------5-------7-------7-----7-7-7-|
|---2-----2------------------------------------------------------|

With distortion effect
|----------------------------------------------------------------|
|----------------------------------------------------------------|
|----------------2-------2-------2-------2-------4--4---4---4-4-4|
|--------------2-------2-------2-------2-------6----6---6---6-6-6|
|------0-----0-------2-------4-------5-------7------7---7---7-7-7|
|---2-----2------------------------------------------------------|

|----------------------------------------------------------------|
|----------------------------------------------------------------|
|----------------2-------2-------2-------2-------4--4---4---4-4-4|
|--------------2-------2-------2-------2-------6----6---6---6-6-6|
|------0-----0-------2-------4-------5-------7------7---7---7-7-7|
|---2-----2------------------------------------------------------|

Chorus.
|-----------------------------|
|-----------------------------|
|--2---4---6---7-/-9-9---9-9-9| Play this twice
|--2---4---6---7-/-9-9---9-9-9|
|--0---2---4---5-/-7-7---7-7-7|
|-----------------------------|

Intro.

Verse.

Chorus.

Heavy Bit.
|--X-X-5-X--4--4--4--4--4--4--|
|--X-X-5-X--4--4--4--4--4--4--|
|--0-0-3-0--2--2--2--2--2--2--|


Solo. (Thanks to Greg F. - gregf@wwa.com)

|----------------------------------------------------------|
|--------------------10-----------------------10--15-15----|
|--11-9-11-9h11-11p9----9---11-9-11-9h11-11p9---------/----|
|----------------------------------------------------------|
|----------------------------------------------------------|
|----------------------------------------------------------|

|-----------------------------------------------------|
|--14----12-----------------------10------------------|
|---/-----/-----11-9-11-9h11-11p9----9---11-9-11-9h11-|
|-----------------------------------------------------|
|-----------------------------------------------------|
|-----------------------------------------------------|

|----------------------------------------|
|-------10--17-17---15---17-19---21------|
|--11p9---------/----/----/--/----/------|
|----------------------------------------|
|----------------------------------------|
|----------------------------------------|

Chorus.

Heavy Bit.

-----------------------------   MetallicA   --------------------------------
Bleeding Me (version 1)
---------------------------
Tabbed by Brian Stoner
Main Riff:

|-------------|---------------|-------------|-------------|
|-------------|---------------|-------------|-------------|
|-------0-----|-----------0---|-------0-----|-------------|
|---------0---|-------0-------|---------0---|-------------|
|---2/7-----7-|---7-0---7---7-|---2/7-----7-|---7-----4-2-|
|-0-----------|-0-------------|-0-----------|-0---0-5---3-|

Chords for Chorus:

| E | D | D | A |

Lead Riff Played over Chorus (Not Sure if I tabbed this part right):
|-------------|---------|-----------|---------------|
|-------------|---------|-----------|---------------|
|---7-9/12-9--|---7-----|-----7-----|---------------|
|-9-----------|-5---7b8-|---5---7b8-|-7/9-7p5-------|
|-------------|---------|-7---------|---------7-5-7-|
|-------------|---------|-----------|---------------|
This stuff repeats for most of the song.

-----------------------------   MetallicA   --------------------------------
Bleeding Me (version 2)
---------------------------
The intro goes like this . . .

|-------------------------------------------------|
|-------------------------------------------------|
|-------------------------------------------5-----|
|---------5-----------------------------5-------7-|
|----/7-------5---7---------7-------5-------------|
|-0-------------------0---------0-----------------|


 ------------------------------------------|
 ------------------------------------------|
 ------------------------------------------|
 --------5---------------------------0-----|
 ---/7-------5---7---------7\--------------|
 0-------------------0---------3/5------\3-|

|-------------------------------------------------|
|-------------------------------------------------|
|-------------------------------------------------|
|-----------5-------0-------0-----------0---------|
|------/7-------5---------------------------0-----|
|-0--------------------/3-------0---2-----------2-|


 The heavier bit after the pause goes like this . . .
 (The "I am the beast that feeds the beast" bit)
|-------------------------------------------------------------|
|-------------------------------------------------------------|
|-------------------------------------------------------5-----|
|-----7-9-------9-----------9-----------9-----------5-------5-|
|-----5/7-------7-----------7-----------7-------7-------------|
|-0---------0-------0---0-------0---0-------0-----------------|

|-------------------------------------------------------|
|-------------------------------------------------------|
|-------------------------------------------------5-----|
|-7h9-----9-----------9-----------9-----------5-------5-|
|-7-------7-----------7-----------7-------7-------------|
|-0-------0---0---0---0---0---0---0---0-----------------|

The chords for the chorus are E5(II position), D5 and A5 - the rhythm's easy
so you shouldn't have a problem working it out.


-----------------------------   MetallicA   --------------------------------
Cure
---------------------------
Verse 1: The first chord starts on an upbeat, play first time only.
         Repeat 10 times.

             |     |     |     |      |     |     |     |
Eb|------||-------------------------|---------------------------||
Bb|------||-------------------------|---------------------------||
Gb|------||-------------------------|---------------------------||o
Db|------||-------------------------|---------------------------||o
Ab|--(2)-||-----2--------2----------|----5~----------5~----2----||
Eb|--(0)-||-----0--3~----0-----x--5-|-6--------5--6--------0----||


Pre-Chorus 1:

     |     |     |     |        |     |     |     |
Eb|--------------------------|--------------------------|
Bb|--------------------------|--------------------------|
Gb|--------------------------|-----------3--3-----------|
Db|--3-----------------------|--3--3--3--3--3-----------|
Ab|--3--3--3--3--3--3--3--3--|--3--3--3--3--3-----3--2--|
Eb|--1--1--1--1--1--1--1--1--|--1--1--1--1--1-----1--0--|
        pm.................... . . .  .  .


     |     |     |     |        |     |     |     |
Eb|--------------------------|--------------------------|
Bb|--------------------------|--------------------------|
Gb|--------------------------|--------------------------|
Db|--------------------------|--------------------------|
Ab|-----0--1-----3--2-----1--|--0--1--0-----3--2-----2--|
Eb|--------------1--0--------|-----------0--1--0-----0--|


     |     |     |     |        |       |       |      |
Eb|--------------------------|-------------------------------|
Bb|--------------------------|-------------------------------|
Gb|--------------------------|--------------15--15-----------|
Db|--3-----------------------|-/15--15--15--15--15-----------|
Ab|--3--3--3--3--3--3--3--3--|-/15--15--15--15--15-----3--2--|
Eb|--1--1--1--1--1--1--1--1--|-/13--13--13--13--13-----1--0--|
        pm.................... . . .  .  .


     |     |     |     |        |     |     |     |
Eb|--------------------------|--------------------------|
Bb|--------------------------|--------------------------|
Gb|--------------------------|--------------------------|
Db|--------------------------|--------------------------|
Ab|-----0--1-----3--2-----1--|--0--1--0-----3--2
Добавлено: 09.03.2012
Другие материалы по этой песне:
  • Аккорды и текст

Страница создана 09.03.2012
http://primanota.ru/metallica/load-album-chords.htm
Привет, Гость.
Предлагаем пройти революционный курс по гитаре.
Подарок от PrimaNota.Ru, забирай!