PrimaNota.ru - самый крупный в мире бесплатный архив песенных текстов, аккордов, табулатур и нот


Metallica - Kirk and guitars - таба, видео

Регистрация Запомнить меня
Войти через:  Facebook Google Twitter Vk Yandex Mail.ru

Metallica - Kirk and guitars - таба, видео

Печатать
Просмотров: 94


-------------------------------------------------------------------------------
			     Kirk and guitars - MetallicA
-------------------------------------------------------------------------------
Tabbed by:bjabbe			
Email:bjabbe@hotmail.com

Tuning:standar

This is the blues that kirk plays on kirk and guitars on cunning stunts disk 2.

e|-----------------------------------------------------------------------
B|--------------------------------------------------------------------
G|-------------------------------------------------------------------------
D|------------------------2------------------------------2-----------------
A|-------------2-4-2-4-2----------------------2-4-2-4-2--------------------
E|---0----4----------------------0------4----------------------------------



e|-------------------------------------------------------------------------
B|-------------------------------------------------------------------------
G|-----------------------2-------------------------------------------------
D|------------2-4-2-4-2------------------------------2---------------------
A|---0----4------------------------------2-4-2-4-2-------------------------
E|-----------------------------0-----4-------------------------------------



e|--------------------------------------------------------------------0----
B|--------------------------------------------------------------------2----
G|--------------------------------4-----------------------------------2----
D|------------------4-2-4-2-4---------------4----2--------------------1----
A|----2-----6----------------------------------------4----2-----------0----
E|-------------------------------------------------------------4---0---0---





| /  slide up
|   slide down
| h  hammer-on
| p  pull-off
| ~  vibrato
| +  harmonic
| x  Mute note
===============================================================================


Добавлено: 14.02.2014
Другие материалы по этой песне:
  • Аккорды и текст

Страница создана 14.02.2014
http://primanota.ru/metallica/kirk-and-guitars-chords.htm
Привет, Гость.
Предлагаем пройти революционный курс по гитаре.
Подарок от PrimaNota.Ru, забирай!