PrimaNota.ru - самый крупный в мире бесплатный архив песенных текстов, аккордов, табулатур и нот


Metallica - Cliffem All (album) - таба, бас-таба, видео

Регистрация Запомнить меня
Войти через:  Facebook Google Twitter Vk Yandex Mail.ru

Metallica - Cliffem All (album) - таба, бас-таба, видео

Печатать
Просмотров: 309
Уроки эстрадного вокала в Санкт-Петербурге
Band- Metallica
Album- Cliff Em' All
Tuning(whole album)-Standard

This is a tribute video to Cliff Burton and the highlights of the 3 1/2 years he was with
the band.

1.Creeping Death
2.Am I Evil?
3.Damage Inc.
4.Master Of Puppets
5.Whiplash
6.The Four Horsemen
7.Fade To Black
8.Seek And Destroy
9.Welcome Home(Sanitarium)
10.For Whom The Bell Tolls
11.No Remorse
12.Metal Militia

1.CREEPING DEATH

E------------------------------------------------------|
B------------------------------------------------------|
G------------------------------------------------------|
D------------9------------9\7             -------------|
A------------7------------7\5 4times then --7--5--4--2-|
E--0-0-0-0-0----0-0-0-0-0----             --5--3--2--0-|
  pm........    .........                   ..........
the last two times the second guitar does this
D-------------9------------9\7-|
A------------10-----------10\9-|
E--0-0-0-0-0----0-0-0-0-0------|

                                   You do this right before the verse
D------2---2--2---2---2h3p2h3p2p0   -5-7-5-|
A------2---2--2---2---2h3p2h3p2p0   -3-5-3-|
E--0-0---0------0---0------------   -------|
  pm....................
           this is the pre chours and is done during the second intro
D----------------------------------------|
A--------5--------5----------------------|
E--0--0--3--0--0--3--0--0--2-2-2-2-2-2-2-|
 pm....     ....     ...................
chours
D--2-  --5-7--  -10-9-  --5-7--  -10-12-9---  -5-7-  -10-9-  -5-7--------
A--2-  --3-5-  --8--7-  --3-5-  --8--10-7--  --3-5-  -8--7-  -3-5---5-7-5
E--0-  -------  ------- --------   ---------  ------  ------  ------3-5-3

Then the repeat the hole song except for the main intro
Now the kickass yet some what cmplicated solo

e--------------------------------------|----------------------19h20h22--|
b--12-13-15-17p15-13-14-15-17-19p17-15-|-15-17-19-17-19-20-22-----------|
g--------------------------------------|--------------------------------|
d--------------------------------------|--------------------------------|

E--22b24----22b24----22b24----|--22b24--r22----22b24-r23-b24--22--19--|
B-----------------------------|---------------------------------------|
G-----------------------------|---------------------------------------|

E--22--20--19-\17--21--19--17-\15--19--17--15-\14--17--15--14-\12--|
B------------------------------------------------------------------|
G------------------------------------------------------------------|

E--15p14--------------------------------------------------|
B---------17p15--15p14p12h14--12-\10--10------------------|
G------------------------------------------12b14-r13-b14--|
D---------------------------------------------------------|

E-----------------------------------------|-----------------------------------|
B--------10--15------15---12--------------|-----------------------------------|
G--(14)------14b16---14---12------12--14--|--14b16--r14--12b13--------12--14b-|
D-----------------------------14----------|-----------------------14----------|
A-----------------------------------------|-----------------------------------|

E--------------------------------------------------------|
B--------12--15p12--15p12--------------12--15p12--15p12--|
G--b16---------------------14b16-(16)--------------------|
D---------------------------------*----------------------|
 * : hold bend and strike note
E------------------------------------------12-|-15p12----12----------------------14-|
B---------12--15p12--15p12--15b17----(17)-----|-------15----15-12-15p12----12-------|
G--14b16------------------------------*-------|-------------------------14----14----|
D---------------------------------------------|-------------------------------------|

E-17p15-14-15p14----14-------12-------|-------------------------------------|
B----------------17----17p15----15p14-|-15p14-12-14-12----------------------|
G-------------------------------------|----------------14--12------12--14-/-|
D-------------------------------------|------------------------14-----------|
                                  Sweep picking
E----------17--19-/22-~-~-22-~-~-|---------12--17p12-----------------12--17p12-------|
B------18------------------------|-----13-------------13---------13------------13----|
G-/19----------------------------|-14---------------------14-14-------------------14-|
D--------------------------------|---------------------------------------------------|

E----------12--17p12-------------------12--17p12------|
B------13-------------13-----------13-------------13--|
G--14--------------------14-14-14---------------------|
D-----------------------------------------------------|

E--12h15p12---------------------------------|----------------------------------------|
B-----------15---12----12-15p12-------------|--15------15------15-------------(15)\--|
G-------------------14----------14-12----12-|--14b16---14b16---14b16-r14-b16--(14)\--|
D-------------------------------------14----|----------------------------------------|

D---------------------------------|----------------------------------------------|
A--7--7-7-8-8-8-8-9-9-9-9-9-9-9-9-|-10-9-10-9-10-9-11-10-12-11-12-11-12-11-13-12-|
E---------------------------------|----------------------------------------------|

G-------------------------------------------------|
D----------------------------------------------11-|
A-14-13-14-13-14-14-15-15-14-14-15-14-14-14-15----|
E-------------------------------------------------|

E----------------------------------------------------------|
B---------------------------------------------------12/14--|
G-11-12-11-12-11-12-12-12-12-13-12-13-15-15---15-15--------|
D----------------------------------------------------------|

E-------------------------------------14-|-17p14-------------------------------------|
B-------------------14-17-14----14-17----|-------17-14-----14---17p14----------------|
G--17--14--13-14-16----------16----------|-------------16--------------16-14------14-|
D----------------------------------------|------------------------------------16-----|

E-------------------------------------|------------------------------------|
B-------------------------------------|------------------------------------|
G-16p14----14-------------------------|------------------------------------|
D-------16----16p14-16p14----14-------|----------------------------12--12--|
A-------------------------16----16-14-|-16p14-12-14p12-----12--14----------|
E-------------------------------------|----------------14------------------|

E-------------------------|------------------------------|--------------------------|
B-------------------------|------------------------------|--------------------------|
G-------------11--12--14--|--(14)----12----12-h-14-p-12--|--------------11--12--14--|
D--14------14-------------|------------------------------|--12------14--------------|
A-------------------------|------------------------------|--------------------------|
E-------------------------|------------------------------|--------------------------|

E----------------------------|--12--------12-/14--15--17--|
B----------12----13----15----|----------------------------|
G--(14)----------------------|----------------------------|
D----------------------------|----------------------------|

E--(17)--15---14----------|--/17------17--19----20--|--(20)--19--17---15-14h15--|
B-------------------17----|---//--------------------|---------------------------|
G-------------------------|-------------------------|---------------------------|

E-15p14p12-15p14p12-15p14p12-15p14p12-|-15p14p12-15p14p12-15p14p12-15-12/14-|
B-------------------------------------|-------------------------------------|
G-------------------------------------|-------------------------------------|

E-17p15p14-17p15p14-17p15p14-17p15p14-|-17p15p14-17p15p14-17p15p14-17-15-15-|
B-------------------------------------|-------------------------------------|
G-------------------------------------|-------------------------------------|


E-19p17p15-19p17p15-19p17p15-19-15-16-|-20p19p17-20p19p17-22p20p19-22p20p19-|
B-------------------------------------|-------------------------------------|
G-------------------------------------|-------------------------------------|

E--22b24----22b24----|--22b24----22b24--22b24-~-|------------|
B--------------------|--------------------------|------------|
G--------------------|--------------------------|------------|
D--------------------|--------------------------|--14-\-\-\--|
A--------------------|--------------------------|--14-\-\-\--|
E--------------------|--------------------------|--12-\-\-\--|
bridge
D--9---------10-7-9---------12-10-9---------10-7-9-|
A--7---------8--5-7---------10-8--7---------8--5-7-|
E----0-0-0-0--------0-0-0-0---------0-0-0-0--------|
    pm......        .......         .......

first you do the the verse riff then this little solo thing
gtr.1
e--------------------------------------------|
B--15-13-12---12----13---15-13-12---12----13-|
G----------------14--------------------14----|
D--------------------------------------------|
Gtr.2
e-----------------------------------|
B--10-8-7---7---8---10-8-7---7---8--|
G-------------9----------------9----|
D-----------------------------------|
Then  the last verse and so on then an outro

Gtr.3
D---9-7-5-4---5-4-2-5---9-7-5-4---5-4-2-5-|
A---7-5-3-2---3-2-0-3---7-5-3-2---3-2-0-3-|
E-----------------------------------------|
Gtr.2
E-------------------------------------------------------------------------|
B�17-15-13-12�-13-12-10-13---17-15-13-12---13-12-10-13------|
G-------------------------------------------------------------------------|
Gtr.1
E------------------------------------------------------------|
B------------------------------------------------------------|
G-19-17-15-14---15-14-12-15----19-17-15-14---15-14-12-15-----|
Then gtr.3 stops and does this
e-----------------------------|       (8 times)
B----19p16p0------------------|

e----------------------------|       (8 times)
B----20p17p0-----------------|
And this all ends with a slide like from the solo to the bidge
And this little outro thing

 E-------------|-------------|-14h15--14----|-------------|----------|----|
 B-------------|-------16-17-|-----------17-|-16----------|----------|----|
 G----------14-|-16-17-------|--------------|----17-16-14-|----------|----|
 D-14-16-17----|-------------|--------------|-------------|-17p16p14-|-14-|
 A-------------|-------------|--------------|-------------|----------|----|
 E-------------|-------------|--------------|-------------|----------|----|
   Oh yeah, and its all tremelo picked

2.AM I EVIL?

Gtr 1 : Distorted

        |   |   |   |     |   |   |   |    |   |     |   |

||---||-----------------|----------------|---------------------|
||-4-||-----------------|----------------|---------------------|
||---||-9-----------7-9-|-10----------12-|-9---9-9-9-9---9-9-9-|
||-4-||-9-----------7-9-|-10----------12-|-9---9-9-9-9---9-9-9-|
||---||-7-----------5-7-|-8-----------10-|-7---7-7-7-7---7-7-7-|
||---||-----------------|----------------|---------------------|

   |   |     |     |       |   |     |   |       |   |     |	 |

 |-----------------------|---------------------|-----------------------|
 |-----------------------|---------------------|-----------------------|
 |-9---9-9-9-7-7-7-7-7-7-|-9---9-9-9-9---9-9-9-|-9---9-9-9-7-7-7-7-7-7-|
 |-9---9-9-9-7-7-7-7-7-7-|-9---9-9-9-9---9-9-9-|-9---9-9-9-7-7-7-7-7-7-|
 |-7---7-7-7-5-5-5-5-5-5-|-7---7-7-7-7---7-7-7-|-7---7-7-7-5-5-5-5-5-5-|
 |-----------------------|---------------------|-----------------------|
					       |
					       |
   					       | Gtr 2 : Distorted
					       | ( Trem Strum )
                           |--------------------------|
                           |--------------------------|
                            |-------------------------|
                           |-14-\---------------------|
                           |-14-\---------------------|
                           |-12-\---------------------|


Gtr 1 doubles Gtr 2

  |   |     |   |       |   |     |     |       |   |     |   |

|---------------------|-----------------------|---------------------|
|---------------------|-----------------------|---------------------|
|*--------------------|-----------------------|---------------------|
|-2-------------------|-----------9-9-9-9-9-9-|-8-------------------|
|*2-------------------|-----------9-9-9-9-9-9-|-8-------------------|
|-0-------------------|-----------7-7-7-7-7-7-|-6-------------------|

  |   |     |     |       |   |     |   |       |   |     |     |

|-----------------------|---------------------|-----------------------|
|-----------------------|---------------------|-----------------------|
|----------------------*|---------------------|-----------------------|
|-----------3-3-3-3-3-3-|-2-------------------|-----------9-9-9-9-9-9-|
|-----------3-3-3-3-3-3*|-2-------------------|-----------9-9-9-9-9-9-|
|-----------1-1-1-1-1-1-|-0-------------------|-----------7-7-7-7-7-7-|

  |   |     |   |       |   |     |        |          |   |     |   |

|---------------------|-----------------------------|-----------------------|
|---------------------|-----------------------------|-----------------------|
|---------------------|-----------10-10-10-10-10-10-|-9---------------------|
|-8-------------------|-----------10-10-10-10-10-10-|-9---------------------|
|-8-------------------|-----------8--8--8--8--8--8--|-7---------------------|
|-6-------------------|-----------------------------|-----------------------|

  |   |     |     |       |   |     |   |       |   |     |     |

|-----------------------|---------------------|-----------------------|
|-----------------------|---------------------|-----------------------|
|-----------------------|---------------------|-----------------------|
|-----------9-9-9-9-9-9-|-8-------------------|-----------3-3-3-3-3-3-|
|-----------9-9-9-9-9-9-|-8-------------------|-----------3-3-3-3-3-3-|
|-----------7-7-7-7-7-7-|-6-------------------|-----------1-1-1-1-1-1-|

  |   |     |   |       |   |     |     |       |    |     |   |

|---------------------|-----------------------|----------------------|
|---------------------|-----------------------|----------------------|
|---------------------|-----------------------|*---------------------|
|-2-------------------|-----------7-7-7-7-7-7-|-/9---9-9-9-9---9-9-9-|
|-2-------------------|-----------5-5-5-5-5-5-|*/7---7-7-7-7---7-7-7-|
|-0-------------------|-----------------------|----------------------|


                        Gtr 1 : Grad rit.

  |   |     |     |       |   |   |   |      |   |   |   |
	(Repeat 3 times)
                                  ~~             ~~      ~~
|-----------------------|------------------|-------------------|
|-----------------------|------------------|-------------------|
|----------------------*|------------------|-------------10----|
|-9---9-9-9-7-7-7-7-7-7-|------------------|-----9---8---------|
|-7---7-7-7-5-5-5-5-5-5*|-------------8----|-7-----------------|
|-----------------------|-0---7---6--------|-------------------|


  ~~
|------------------------------------|
|------------------------------------|
|-9---10---/12---/14-----/16---------|
|------------------------------------|
|------------------------------------|
|------------------------------------|

Gtr 2 : Intro solo. (See comments at end)

   HH  HH  HH  HH  HH  HH  HH  HH    HH  HH  HH  HH  HH  HH  HH  HH
|---------------------------------|---------------------------------|
|-058-058-058-058-058-058-058-058-|-047-047-047-047-047-047-047-047-|
|---------------------------------|---------------------------------|
|---------------------------------|---------------------------------|
|---------------------------------|---------------------------------|
|---------------------------------|---------------------------------|


							(Hold last note..)
   HH  HH  HH  HH  HH   HH   HH  HH    HH  HH  HH  HH  HH  HH  HH
|-----------------------------------|---------------------------------|
|-058-058-058-058-0710-0710-058-058-|-047-047-047-047-047-047-047-----|
|-----------------------------------|---------------------------------|
|-----------------------------------|---------------------------------|
|-----------------------------------|---------------------------------|
|-----------------------------------|---------------------------------|


  A   A   A   A   A   A Wh~~~~~~
|-------------------------------|
|-------------------------------|
|-------------------------------|
|-----5-------------------------|
|-5-----------5-------7---------|
|---------5-------7-------------|

"One, Two"		(Repeat Main Riff 8 times before verse)

                      PM---|  PM-|  PM---|

           	    |   |   |  |    |   |   |  |
Main Riff :       |--------------------------------|
          |----------------------------------------|
          |*---------------------------------------|
          |---------------2---------3--2-----------|
          |*2-2-2-2-5-2-2-0-2-2-2---1--0-----------|
          |-0-0-0-0-3-0-0---0-0-0------------------|

(Main Riff with verse 1)

Verse 1 : (Lyrics)

		My mother was a witch, she was burned alive.
		Thankless little bitch, for the tears i've cried.
		Take her down now, don't want to see her face.
		All blistered and burned, can't hide my disgrace.


		      PM---|  PM-|  PM---|

		    |   |   |  |    |   |   |  |
Pre-Chorus riff : |--------------------------------|
          |----------------------------------------|
          |*---------------------------------------|
          |---------7-----9---------10-9-----------|
          |*7-7-7-7-5-7-7-7-7-7-7---8--7-----------|
          |-5-5-5-5---5-5---5-5-5------------------|

(Pre-Chorus riff x 4 with Pre-Chorus)

Pre-Chorus : (Lyrics)

		Twenty-seven, every one is nice,
		Gotta see 'em, make 'em pay the price,
		See the bodies out on the ice,
		Take my time.......


(Main Riff x 4 with Chorus)

Chorus : (Lyrics)

		Am I Evil?
		Yes I am,
		Am I Evil?
		I am that, yes I am....


			*******Main Riff x 2*******

(Main Riff x 8 with verse 2)

Verse 2 : (Lyrics)

		As i watched my mother die, I lost my head,
		Revenge now I sought, to break with my bread,
		Taking no chances, you come with me,
		I split you to the bone, help set you free.


(Pre-chorus riff x 4 with pre-chorus)

(Main Riff x 4 with chorus)

Bridge :

		|------------------|------------------------------|
		|------------------|------------------------------|
		|*9-----7-----5---*|------------------------------|
		|-9-----7-----5----|---------------2---------3--2-|
		|*7-----5-----3---*|-2-2-2-2-5-2-2-0-2-2-2---1--0*|
		|------------------|-0-0-0-0-3-0-0---0-0-0--------|


               (Repeat 3 times)

	. |   |   |   |      |   |     |  |       |   |   |   |
						    ~~~~~~~~~~~
	|------------------|--------------------|------------------|
	|------------------|--------------------|------------------|
	|*9-----7-----5---*|-9-----11-----12----|------------------|
	|-9-----7-----5----|-9-----11-----12----|------------------|
	|*7-----5-----3---*|-7-----9------10----|--/7--------------|
	|------------------|--------------------|------------------|

Double Time feel :

				      _______________________________________
Fast Riff 1:			      |1.

  |   |   |   |      |   |   |   |      |   |   |   |      |   |   |   |

     PM-|    PM-|       PM-|               PM-|    PM--|      PM--------------|
|------------------|------------------|------------------|--------------------|
|------------------|------------------|------------------|--------------------|
|*-----------------|------------------|------------------|--------------------|
|------------------|-------------7----|------------------|---------5----------|
|*7--7777-7--7777--|-7--7777-5---5----|-7--7777-7--7777--|-7--7777-3---5------|
|-5--5555-5--5555--|-5--5555-3--------|-5--5555-5--5555--|-5--5555-----3------|


_____________________________________
|2.					Fast Riff 2 : (Note : Lyrics)

  |   |   |   |      |   |   |   |      |   |   |   |     |   |   |   |

     PM-|    PM--|            PM--------------------------------------------|
|------------------|-----------------||-----------------|-------------------|
|------------------|-----------------||-----------------|-------------------|
|------------------|-----------------||*----------------|-------------------|
|------------------|-----------------||-----------------|------------7------|
|-7--7777-7--7777--|-----------------||*2--2222-2-2222--|-2--2222-2--5------|
|-5--5555-5--5555--|-555-555-555-532-||-0--0000-0-0000--|-0--0000-0---------|
   		   |   Triplets      |


  |   |   |   |     |   |   |   |

  PM----------------------------------|
|-----------------|-------------------|
|-----------------|-------------------|
|-----------------|-------------------|    Repeat whole sequence again.
|-----------------|------------7-7----|
|-2--2222-2-2222--|-2--2222-2--5-5----|
|-0--0000-0-0000--|-0--0000-0---------|

(With Fast Riff 2 [First repeat])

Lyrics :


(With Fast Riff 2 [Second repeat])

Lyrics :



		*******Then Fast Riff 1 x 1*******

  |   |   |   |      |   |   |   |      |   |   |   |

|------------------|------------------|------------------|
|------------------|------------------|------------------|
|------------------|------------------|------------------|
|-2----------------|------------------|-5-------7--------|
|-2----------------|------------------|-5-------7--------|
|-0----------------|------------------|-3-------5--------|


GUITAR SOLO:


For the solo, the rhythm follows the following 'feel':

          X       X         X       X
	|-X--XXXX-X-XXXX--|-X--XXXX-X-XXXX--|

	Chord changes are noted above tab lines, and are 2 or 3 fingered power
chords, depending on what you feel like. For the 'XX' notes, strike the
full chord, on the others just play the lowest note (Usually the E string)

  B5

  |  |||| |  | |||    |    | ||| |   | || |
  @  @@@@ @  @ @@@    @    @ @@@ @   @ @@ @
      (Full)    P
|-----------7-------|----------------11-12--|
|------------10-7-7/|/12-----------12-------|
|-9^^^^^^^^^--------|-----------------------|
|-------------------|-----------------------|
|-------------------|-----------------------|
|-------------------|-----------------------|

  |       |  |  |  |     |     |  |  |  |    |    |||| |   ||||
  @       @  @  @  @     @     @  @  @  @    @    @@@@ @   @@@@
    H  P       H  H        P  P     P  P
|-11-12-11---11-12-14-14-14-12-11-12-11----|-----------------7---|
|---------12----------------------------12-|-10---------/7-------|
|------------------------------------------|---------------------|
|------------------------------------------|---------------------|
|------------------------------------------|---------------------|
|------------------------------------------|---------------------|

  |  ||||  |     |   | |  |     |    | || | |     ||||
  @  @@@@  @     @   @ @  @     @    @ @@ @ @     @@@@
            H P                   P       P   P
|-10-9--7--7-9-7-----7--------|--------------------------|
|----------------10----10-7---|-10-7---7-----------------|
|-----------------------------|------9---9-7-9-7---7---7-|
|-----------------------------|------------------9-------|
|-----------------------------|--------------------------|
|-----------------------------|--------------------------|

  |    ||  | | |    | | | |     |    ||  | | |    | | | |
  @    @@  @ @ @    @ @ @ @     @    @@  @ @ @    @ @ @ @
 (Full)                        (Full)
|-----7-----------------------|-----7-----------------------|
|-----7-10-7---7--------------|-----7-10-7---7--------------|
|-9^^--------9---9-7-7------7-|-9^^--------9---9-7-7------7-|
|-----------------------------|-----------------------------|
|-----------------------------|-----------------------------|
|-----------------------------|-----------------------------|


  |    ||  | | |    | | | |      |      | | | |   |   | | | |
  @    @@  @ @ @    @ @ @ @      @      @ @ @ @   @   @ @ @ @
 (Full)
|-----7-----------------------|-/19--/20---/22---/24----------|
|-----7-10-7---7--------------|-------------------------------|
|-9^^--------9---9-7-7------7-|-------------------------------|
|-----------------------------|-------------------------------|
|-----------------------------|-------------------------------|
|-----------------------------|-------------------------------|

  E5
  |      | |  |  |  |      | |  |  |    |      | |  |  |  |      | |  |  |
  @      @ @  @  @  @      @ @  @  @    @      @ @  @  @  @      @ @  @  @
    P  P              P  P                P  P              P  P
|-15-14-12----12-14-15-14-12----12-14-|-15-14-12----12-14-15-14-12----12-14-|
|----------15----------------15-------|----------15----------------15-------|
|-------------------------------------|-------------------------------------|
|-------------------------------------|-------------------------------------|
|-------------------------------------|-------------------------------------|
|-------------------------------------|-------------------------------------|


  |     | | | |  |     | | | |     |     | | | |  |     | | | |
  @     @ @ @ @  @     @ @ @ @     @     @ @ @ @  @     @ @ @ @

|-15---14---12--------12---------|--------------------------------|
|----------------15--------15----|-14---12---14-------------------|
|--------------------------------|----------------12======--------|
|--------------------------------|--------------------------------|
|--------------------------------|--------------------------------|
|--------------------------------|--------------------------------|

  B5
  |  | | | | |   | | | |    |    | | | |  |   | | | |
  @  @ @ @ @ @   @ @ @ @    @    @ @ @ @  @   @ @ @ @
 (Full) P     P      P        P      P     P     P
|------7-0-0-9-0-0-10-0-0-|-12-0-0-10-0-0-9-0-0-7-0-0-|
|----7--------------------|---------------------------|
|-9^----------------------|---------------------------|
|-------------------------|---------------------------|
|-------------------------|---------------------------|
|-------------------------|---------------------------|

  |    | | | | |   | | | |      |   | | | | |   | | | |
  @    @ @ @ @ @   @ @ @ @      @   @ @ @ @ @   @ @ @ @

|-10---9---7--------7---------|----------------------------|
|--------------10-------10----|-9---7---9------------------|
|-----------------------------|-------------7======\-------|
|-----------------------------|----------------------------|
|-----------------------------|----------------------------|
|-----------------------------|----------------------------|


  |  |||| |  ||||   |  |||| |  ||||   |  |||| |  ||||   |  |||| |  ||||
  @  @@@@ @  @@@@   @  @@@@ @  @@@@   @  @@@@ @  @@@@   @  @@@@ @  @@@@
   HH  HH  HH  HH    HH  HH  HH  HH    HH  HH  HH  HH    HH  HH  HH  HH
|-----------------|-----------------|-----------------|-047-047-047-047-|
|-047-047-047-047-|-058-058-058-058-|-047-047-047-047-|-----------------|
|-----------------|-----------------|-----------------|-----------------|
|-----------------|-----------------|-----------------|-----------------|
|-----------------|-----------------|-----------------|-----------------|
|-----------------|-----------------|-----------------|-----------------|

                                      A5
  |  |||| |  ||||   |  |||| |  ||||   |   ||||  |   ||||
  @  @@@@ @  @@@@   @  @@@@ @  @@@@   @   @@@@  @   @@@@
   HH  HH  HH  HH    HH  HH  HH  HH   T PP T PP T PP T PP
|-058-058-058-058-|-047-047-047-047-|-1285-1285-1285-1285-|
|-----------------|-----------------|---------------------|
|-----------------|-----------------|*-------------------*|
|-----------------|-----------------|---------------------|
|-----------------|-----------------|*-------------------*|
|-----------------|-----------------|---------------------|

  F5                    A#5                   F#5
  |   ||||  |   ||||    |   ||||  |   ||||    |   ||||  |   ||||
  @   @@@@  @   @@@@    @   @@@@  @   @@@@    @   @@@@  @   @@@@
  T PP T PP T PP T PP   T PP T PP T PP T PP   T PP T PP T PP T PP
|-1385-1385-1385-1385-|-1396-1396-1396-1396-|-1496-1496-1496-1496-|
|---------------------|---------------------|---------------------|
|*-------------------*|*-------------------*|---------------------|
|---------------------|---------------------|---------------------|
|*-------------------*|*-------------------*|---------------------|
|---------------------|---------------------|---------------------|


  B5
  |    || | | |    || | |   |  |||| |  ||||   |  |||| |  ||||
  @    @@ @ @ @    @@ @ @   @  @@@@ @  @@@@   @  @@@@ @  @@@@
  T P P T P P T P P T P P    HH  HH  HH  HH    HH  HH  HH  HH
|-14107-14107-14107-14107-|-047-----047-----|-047-----047-----|
|-------------------------|-----047-----047-|-----047-----047-|
|*-----------------------*|-----------------|-----------------|
|-------------------------|-----------------|-----------------|
|*-----------------------*|-----------------|-----------------|
|-------------------------|-----------------|-----------------|


  |  |||| |  ||||   |  |||| |  ||||   |  |||| |  ||||   |  |||| |  ||||
  @  @@@@ @  @@@@   @  @@@@ @  @@@@   @  @@@@ @  @@@@   @  @@@@ @  @@@@
   HH  HH  HH  HH    HH  HH  HH  HH    HH  HH  HH  HH    HH  HH  HH  HH
|-----------------|-----------------|-----------------|-----------------|
|-047-----047-----|-047-----047-----|-----------------|-----------------|
|-----047-----047-|-----047-----047-|-047-----047-----|-047-----047-----|
|-----------------|-----------------|-----047-----047-|-----047-----047-|
|-----------------|-----------------|-----------------|-----------------|
|-----------------|-----------------|-----------------|-----------------|

                                        E5
  |  |||| |  ||||   |  |||| |  ||||     |      | | |  |   |      | | |  |
  @  @@@@ @  @@@@   @  @@@@ @  @@@@     @      @ @ @  @   @      @ @ @  @
   HH  HH  HH  HH                         P  P     P  P     P  P     P  P
|-----------------|-------------------|-------------------------------------|
|-----------------|----------------12-|-1514-0-0-1715-0-0-1514-0-0-1715-0-0-|
|-----------------|-------------/14---|-------------------------------------|
|-047-----047-----|-------------------|-------------------------------------|
|-----047-----047-|-------------------|-------------------------------------|
|-----------------|-7\----------------|-------------------------------------|

  |      | | |  |   |      | | |  |     |        |  | | |    |    ||| |
  @      @ @ @  @   @      @ @ @  @     @        @  @ @ @    @    @@@ @
    P  P    P  P    P  P    P  P
|-------------------------------------|---------------------------------|
|-1514-0-0-1715-0-0-1514-0-0-1715-0-0-|-1514-0-1412-0-1210-0-109-0-97-0-|
|-------------------------------------|---------------------------------|
|-------------------------------------|---------------------------------|
|-------------------------------------|---------------------------------|
|-------------------------------------|---------------------------------|


                      B5
  |  ||||  |  ||||    |   |||| |    || ||    |    |||| |  ||||
  @  @@@@  @  @@@@    @   @@@@ @    @@ @@    @    @@@@ @  @@@@
                     (Full)      P                     (Full)
|-------------------|----------------------|------------10^====|
|-7-----------------|-10^------107---7-----|-------------------|
|-7-9-7---7---------|--------------9---9-7-|-9-7---7-----------|
|-------------------|----------------------|-----9-------------|
|-------------------|----------------------|-------------------|
|-------------------|----------------------|-------------------|


  |   || || |       || | |    |    || | |  |  | | | |       (END SOLO)
  @   @@ @@ @       @@ @ @    @    @@ @ @  @  @ @ @ @
              H  P    H  P     H P   H P    ~~~~~~~~
|-9----12-------------------|--------------------------|
|-----------10-12-10-8-10-8-|-7-8-7-5-6-5--3========---|
|---------------------------|--------------------------|
|---------------------------|--------------------------|
|---------------------------|--------------------------|
|---------------------------|--------------------------|


*******Fast Riff 1 x 2 ( Note : Only repeat the first section )*******

On fourth repeat, Gtr 2 plays:

               P
|------------------|
|------------------|
|------------------|
|-/777-777-777-75--|
|----------------7-|
|------------------|


*******Fast Riff 2 x 4*******

*******Fast Riff 1 x 4*******


(Triplet feel - not strict time)

                             _________________________
                             |1,2,3.      |4.
                              H   H P
|------------------|----------------------|----------|
|------------------|----------------------|----------|
|------------------|---------------------*|----------|
|-----9---7-7------|-7-7------------------|-7--------|
|-----7---5-5------|-5-5---------5-7-5---*|-5---7----|
|-0-0--------------|---------5-7-------7--|-----5----|


    PM---|  PM-|  PM---|       h   h
              (Repeat 6 times)
|----------------------------|-----------------|
|----------------------------|-----------------|
|*--------------------------*|-----------------|
|---------------2--------3-2-|-------------2---|
|*2-2-2-2-5-2-2-0-2-2-2--1-0*|---------5---2---|
|-0-0-0-0-3-0-0---0-0-0------|-5---5---3---0---|       (END)

3.DAMAGE INC.

Intro
Two guitars
|--5------3------|----------------|----------------|----------------|
|----------------|--3------5------|--7------7------|--8------3------|
|--2------4------|--4------6------|--7------4------|--5------7-p-0--|
|----------------|----------------|----------------|----------------|
|----------------|----------------|----------------|----------------|
|----------------|----------------|----------------|----------------|
 volume swells, with heavy echo

|--5------3------|----------------|----------------|----------------|
|----------------|--3------5-p-3--|--7-p-3--7-p-3--|--8--p-5h7p5-3--|
|--2------4------|--4------6-p-2--|--7------4------|--5--p-2h4p2-0--|
|----------------|----------------|----------------|----------------|
|----------------|----------------|----------------|----------------|
|----------------|----------------|----------------|----------------|

Fast Tempo=190
||------------|--------------------|------------|--------------------|
||------------|--------------------|------------|--------------------|
||------------|--------------------|------------|--------------------|
||--2----2----|--2----2---3--3--3--|--2----2----|--2----2---3--3--3--|
||--2----2----|--2----2---3--3--3--|--2----2----|--2----2---3--3--3--|
||--0----0----|--0----0---1--1--1--|--0----0----|--0----0---1--1--1--|

|--------------|------------------|--------------|--------------||
|--------------|------------------|--------------|--------------||
|--------------|------------------|--------------|--------------||
|--2--2--2--2--|--2--2--2--3-3-3--|--2--2--2--2--|--2--2--2--2--||
|--2--2--2--2--|--2--2--2--3-3-3--|--2--2--2--2--|--2--2--2--2--||
|--0--0--0--0--|--0--0--0--1-1-1--|--0--0--0--0--|--0--0--0--0--||

  Rhy Fig 1
||-------------------------------------------------|------------------------|
||-------------------------------------------------|------------------------|
||-------------------------------------------------|------------------------|
||-------------------------------------------------|-----7/8-----7/8-----7/-|
||-------------------------------------------------|-----7/8-----7/8-----7/-|
||-0--0--0--0--0--0--0--0--0--0--0--0--0--0--0--0--|--5-------X-------X-----|
   PM............................................|

||-------------------------------------------------|------------------------|
||*------------------------------------------------|------------------------|
||-------------------------------------------------|------------------------|
||--/8---------------------------------------------|-----7/8-----7/8-----7/-|
||*-/8---------------------------------------------|-----7/8-----7/8-----7/-|
||-------0--0--0--0--0--0--0--0--0--0--0--0--0--0--|--5-------X-------X-----|
         PM......................................|

|------------------------------------------------|------------------------|
|------------------------------------------------|------------------------|
|------------------------------------------------|------------------------|
|-/8---------------------------------------------|-----7/8-----7/8-----7/-|
|-/8---------------------------------------------|-----7/8-----7/8-----7/-|
|------0--0--0--0--0--0--0--0--0--0--0--0--0--0--|--5-------X-------X-----|
       PM......................................|
                                                  ________________________
                                                 |1.
|------------------------------------------------|------------------------|
|------------------------------------------------|------------------------|
|------------------------------------------------|------------------------|
|-/8---------------------------------------------|-----5\4-----5\4-----5\-|
|-/8---------------------------------------------|-----5\4-----5\4-----5\-|
|------2--2--2--2--2--2--2--2--2--2--2--2--2--2--|--3-------X-------X-----|
       PM......................................|
 __________________________________________________________________________
                                                                           |
|------------------------------------------------|-------------------------||
|------------------------------------------------|------------------------*||
|------------------------------------------------|-------------------------||
|-\4---------------------------------------------|-----7/8-----7/8-----7/--||
|-\4---------------------------------------------|-----7/8-----7/8-----7/-*||
|------0--0--0--0--0--0--0--0--0--0--0--0--0--0--|--5-------X-------X------||
       PM......................................|
 ________________________
|2.                                   end Rhy Fig 1
|------------------------|------------|------------|
|------------------------|------------|------------|
|------------------------|--4---------|------------|
|-----5\4-----5\4-----5--|--4----5----|--7----5----|
|-----5\4-----5\4-----5--|--2----5----|--7----5----|
|--3-------X-------X-----|-------3----|--5----3----|

|--------------------------------------------------|-------------|
|--------------------------------------------------|-------------|
|--------------------------------------------------|-------------|
|--4--4--4--4--4--4--4--4--4--4--4--4--4--4--4--4--|--4----------|
|--4--4--4--4--4--4--4--4--4--4--4--4--4--4--4--4--|--4----------|
|--2--2--2--2--2--2--2--2--2--2--2--2--2--2--2--2--|--2----------|
   PM............................................|

   Rhy Fig 2
||---------------------------|---------------------------|
||*--------------------------|---------------------------|
||---------------------------|---------------------------|
||---------------------------|---------------------------|
||*-8\5----------------------|--8\5----------------------|
||--6\3--0-0-0--0--0--0-0-0--|--6\3--0-0-0--0--0--0-0-0--|
         PM................|
                                             end Rhy Fig 2
|---------------------------|----------------------------||-----------|
|---------------------------|---------------------------*||-----------|
|---------------------------|----------------------------||-----------|
|---------------------------|----------------------------||-----------|
|--8\5----------------------|--8\5----------------------*||----8------|
|--6\3--0-0-0--0--0--0-0-0--|--6\3--1-1-1--0--0--0-0-0---||----6------|

S/S
Verses w/ Rhy Fig 2

  Chorus
||------------|------------|--------------------------------------------------|
||------------|------------|--------------------------------------------------|
||--4---------|------------|--------------------------------------------------|
||--4----5----|--7----5----|--4--4--4--4--4--4--4--4--4--4--4--4--4--4--4--4--|
||--2----5----|--7----5----|--4--4--4--4--4--4--4--4--4--4--4--4--4--4--4--4--|
||-------3----|--5----3----|--2--2--2--2--2--2--2--2--2--2--2--2--2--2--2--2--|
                              PM............................................|

||------------|------------|--------------------------------------------------|
||------------|------------|--------------------------------------------------|
||--4---------|------------|--------------------------------------------------|
||--4----5----|--7----5----|--4--4--4--4--4--4--4--4--4--4--4--4--4--4--4--4--|
||--2----5----|--7----5----|--4--4--4--4--4--4--4--4--4--4--4--4--4--4--4--4--|
||-------3----|--5----3----|--2--2--2--2--2--2--2--2--2--2--2--2--2--2--2--2--|
                              PM............................................|

  After Chorus
||------------|-------------------|--------------|--------------||
||------------|-------------------|--------------|--------------||
||------------|-------------------|--------------|--------------||
||--2----2----|--2----2--3--3--3--|--2--2--2--2--|--2--2--2--2--||
||--2----2----|--2----2--3--3--3--|--2--2--2--2--|--2--2--2--2--||
||--0----0----|--0----0--1--1--1--|--0--0--0--0--|--0--0--0--0--||

[...]

Solo
|--15p12--12--15--15p14--12--15--15p14--12--15--15p14--12--12--|
|--------------------------------------------------------------|
|--------------------------------------------------------------|
|--------------------------------------------------------------|
|--------------------------------------------------------------|
|--------------------------------------------------------------|

|--15p14--12--15--15p14--12--15--15p14--12--15--15p14--12--15--|
|--------------------------------------------------------------|
|--------------------------------------------------------------|
|--------------------------------------------------------------|
|--------------------------------------------------------------|

|--15--15--15--15--15--14p12--15--15--15--15--15p14p12--12--|
|-----------------------------------------------------------|
|-----------------------------------------------------------|
|-----------------------------------------------------------|
|-----------------------------------------------------------|
|-----------------------------------------------------------|

|--15--14--12--12--15--14--12--15-b17--------------14--|
|----------------------------------------------15------|
|-----------------------------------------/16----------|
|------------------------------------------------------|
|------------------------------------------------------|
|------------------------------------------------------|

|--17--15--14--15p14--15p14----14--X-------|
|---------------------------14--------17\--|
|------------------------------------------|
|------------------------------------------|
|------------------------------------------|
|------------------------------------------|

|-----------------------------------------------|-----------------------------------|
|--15\14--12--14----12\10h12----10\9--10p9------|----10--10p9---------10--10p9------|
|-------------------------------------------11--|--9-----------11--9------------11--|
|-----------------------------------------------|-----------------------------------|
|-----------------------------------------------|-----------------------------------|
|-----------------------------------------------|-----------------------------------|

|-----------------------------------|------------------------------------|
|-----10--10p9---------10--10p9-----|------12--12p10p9------12--12p10p9--|
|--9------------11--9------------9--|--11---------------11---------------|
|-----------------------------------|------------------------------------|
|-----------------------------------|------------------------------------|
|-----------------------------------|------------------------------------|

|------9--9-----------------9--9-------------|-----------------------------------|
|------------12p10----------------12p10------|------12-12p10p9------12--12p10p9--|
|--11---------------11--11---------------11--|--11--------------11---------------|
|--------------------------------------------|-----------------------------------|
|--------------------------------------------|-----------------------------------|
|--------------------------------------------|-----------------------------------|

|-----(9)--9-----------------9--9------------|-12b14--r12-b14--r12--9--9h12-12p9--9-|
|-------------12p10----------------12p10-----|--------------------------------------|
|-11-----------------11--11---------------11-|--------------------------------------|
|--------------------------------------------|--------------------------------------|
|--------------------------------------------|--------------------------------------|
|--------------------------------------------|--------------------------------------|

|--12p9--9--9--12--9---------9--12--9---------9--12p9----------|
|---------------------12b14------------12b14-----------(12)----|
|--------------------------------------------------------------|
|--------------------------------------------------------------|
|--------------------------------------------------------------|
|--------------------------------------------------------------|

|------------------------------------------------|
|--10p7--0--11p8--0--0--12p9--0--0--13p10--0--0--|
|------------------------------------------------|
|------------------------------------------------|
|------------------------------------------------|
|------------------------------------------------|

|------------------------------------------------------|
|--14p11--0--0--15p12--0--0--16p13--0--0--17p14--0--0--|
|------------------------------------------------------|
|------------------------------------------------------|
|------------------------------------------------------|
|------------------------------------------------------|

    UB      UB      UB       UB      UB
|-----12------12------12-------12------12----------|---------------------14--|
|--15b17---15b17---15b17----15b17---15b17--r15p12--|--13-~-~--------/15------|
|--------------------------------------------------|-------------------------|
|--------------------------------------------------|-------------------------|
|--------------------------------------------------|-------------------------|
|--------------------------------------------------|-------------------------|

|--15--17--17--17b19--17b19-r17p14--|--15--~--~--~--14--15--|
|-----------------------------------|-----------------------|
|-----------------------------------|-----------------------|
|-----------------------------------|-----------------------|
|-----------------------------------|-----------------------|
|-----------------------------------|-----------------------|

|--17--15--14--15p14--15p14-------14----------|-----------------17-----------------|
|----------------------------17-------17--14--|--15p14------15---------------------|
|---------------------------------------------|---------16----------14--14--16b18--|
|---------------------------------------------|------------------------------------|
|---------------------------------------------|------------------------------------|
|---------------------------------------------|------------------------------------|

|----------------------------------------------------|-------------------------17b19--|
|----14-17p14------14--17p14------14--17p14------14--|--17p14--17b19----r17p14--------|
|--------------16-------------16-------------16------|--------------------------------|
|----------------------------------------------------|--------------------------------|
|----------------------------------------------------|--------------------------------|
|----------------------------------------------------|--------------------------------|

       +       o      +          o       +
|-------------------------|------------------------|
|-----15------15-----15---|-----15------15---------|
|--14b16---14b16--14b16---|--14b16---14b16---------|
|-------------------------|------------------------|
|-------------------------|------------------------|
|-------------------------|------------------------|
 w/ wha  (+=treble  o=bass)

|--15--15--15--15--15--15--15--12--15--15--15--15--15--15p12--12--|
|-----------------------------------------------------------------|
|-----------------------------------------------------------------|
|-----------------------------------------------------------------|
|-----------------------------------------------------------------|
|-----------------------------------------------------------------|

|--15--15--15--12--15--15--12--15--15b17-~-~-----------|
|-----------------------------------------------10/12--|
|------------------------------------------------------|
|------------------------------------------------------|
|------------------------------------------------------|
|------------------------------------------------------|

|--10--10--12--12-/14--14--15--15--/17---15--15--17--17/--|
|---------------------------------------------------------|
|---------------------------------------------------------|
|---------------------------------------------------------|
|---------------------------------------------------------|
|---------------------------------------------------------|

|--/19--19--19--17--17--17--19--19-/20--20--20--19--19--19--20--20/--|
|--------------------------------------------------------------------|
|--------------------------------------------------------------------|
|--------------------------------------------------------------------|
|--------------------------------------------------------------------|
|--------------------------------------------------------------------|

|--/22--22--20--19--22--20--18--18--21-19-17-17-20-18-16-16-19-17--|
|------------------------------------------------------------------|
|------------------------------------------------------------------|
|------------------------------------------------------------------|
|------------------------------------------------------------------|
|------------------------------------------------------------------|

|--15-15-18-16-14-14-17-15-13-13-16-14-12-15-13-12-14-12-10--\--|---------------|
|---------------------------------------------------------------|---------------|
|---------------------------------------------------------------|---------------|
|---------------------------------------------------------------|---------------|
|---------------------------------------------------------------|---------------|
|---------------------------------------------------------------|---------------|

                   T       T       T       T       T       T       T       T
|--------------|-------------------------------------------------------------------|
|-----------0--|--12p10p7-12p10p7-13p10p7-13p10p7-14p7h10-14p7h10-15p7h10-15p7h10--|
|--------------|-------------------------------------------------------------------|
|--------------|-------------------------------------------------------------------|
|--------------|-------------------------------------------------------------------|
|--------------|-------------------------------------------------------------------|

    T       T       T       T       T       T       T
|-------------------------------------------------------|
|--16p7h10-16p7h10-16p7h10-16p7h10-16p7h10-16p7h10-16\--|
|-------------------------------------------------------|
|-------------------------------------------------------|
|-------------------------------------------------------|
|-------------------------------------------------------|

|------------|------------|------------------------------------------|
|------------|------------|------------------------------------------|
|--4---------|------------|------------------------------------------|
|--4----5----|--7----5----|------------------------------------------|
|--2----5----|--7----5----|--4----4--4----4--4----5---5---5----5--5--|
|-------3----|--5----3----|--2----2--2----2--2----3---3---3----3--3--|
                                 PM...........|      PM............|

|-----------------------------------------|
|-----------------------------------------|
|-----------------------------------------|
|-----------------------------------------|
|--7----7--7----7--7---8----8--8----8--8--|
|--5----5--5----5--5---6----6--6----6--6--|
       PM...........|      PM...........|

||------------------------------|---------------------------|
||*-----------------------------|---------------------------|
||------------------------------|---------------------------|
||------------------------------|---------------------------|
||*-------7-7------8------5-----|--7-7-----8-----7-7-----8--|
||--0--0-------0------0------0--|-------0-----0-------0--6--|
   PM...|     PM     PM      PM         PM    PM      PM
                                ____________________________
                               |1.                          |
|------------------------------|----------------------------||
|------------------------------|---------------------------*||
|------------------------------|----------------------------||
|------------------------------|------------------------7---||
|--------7-7------8------5-----|--7-7-----8-----7-7-----5--*||
|--0--0-------0------0------0--|-------0-----0-------0------||
  PM...|     PM     PM     PM         PM    PM      PM
 ___________________________
|2.                         |
|---------------------------|------------|------------|
|---------------------------|------------|------------|
|---------------------------|--4---------|------------|
|------------------------4--|--4----5----|--7----5----|
|--7-7-----3-----5-5-----2--|--2----5----|--7----5----|
|-------0-----0-------0-----|-------3----|--5----3----|
       PM    PM      PM
                                         DS al coda
|--------------------------------------------------|
|--------------------------------------------------|
|--------------------------------------------------|
|--------------------------------------------------|
|--4--4--4--4--4--4--4--4--4--4--4--4--4--4--4--4--|
|--2--2--2--2--2--2--2--2--2--2--2--2--2--2--2--2--|

Coda
|----------------------|----------------------|
|----------------------|----------------------|
|----------------------|----------------------|
|----4----4------------|----------------------|
|----2----2----5----5--|----7----7----5----5--|
|--------------3----3--|----5----5----3----3--|

|--------------------------------------------------|--------------------|
|--------------------------------------------------|--------------------|
|--------------------------------------------------|--------------------|
|--------------------------------------------------|--------------------|
|--4--4--4--4--4--4--4--4--4--4--4--4--4--4--4--4--|--4-----------------|
|--2--2--2--2--2--2--2--2--2--2--2--2--2--2--2--2--|--2-----------------|

|------------|-----------------|-----------------|
|------------|-----------------|-----------------|
|------------|-----------------|-----------------|
|------------|-----------------|-----------------|
|--2----2----|--2----2--3-3-3--|--3--------------|
|--0----0----|--0----0--1-1-1--|--1--------------|

4.MASTER OF PUPPETS

Intro
-----------------------|
-----------------------|
-9--------7---6---5~~--|
-9--------7---6---5~~--|
-7--------5---4---3~~--|
-0---------------------|

(4 Times)
-----------------------|-------------|-----------------------------------|
-----------------------|-------------|-----------------------------------|
-----------------------|--7---6---5--|-----------------------------------|
-----------------------|--7---6---5--|-----------------------------------|
------7--------6-------|--5---4---3--|-----------------------------------|
-0-0------0-0-----0-0--|-------------|--0-0-7-0-0-6-0-0-5-0-4-0-3-0-2-0--|
 \' \'      \' \'     \' \'                   \' \'   \' \'   \' \'   \'   \'   \'   \'

(2Times)
------------------------------------------------------------------|
------------------------------------------------------------------|
------------------------------------------------------------------|
------------------------------------------------------------------|
-----2-----3-----4-----3-----2-2-----2-----3-----5/4---5/4---5/4--|
-0-1---0-1---0-1---0-1---0-1-----0-1---0-1-----0-3/2-0-3/2-0-3/2--|
 \'     \'     \'     \'     \'       \'     \'       \'     \'     \'


-----------------------------------------------------------------|
-----------------------------------------------------------------|
-----------------------------------------------------------------|
------------------------------------------------------------4----|
-----2-----3-----4-----3-----2-2-----2-----3-----4-----3----2----|
-0-1---0-1---0-1---0-1---0-1-----0-1---0-1---0-1---0-1----0------|
 \'     \'     \'     \'     \'       \'     \'     \'     \'      \'
------------------------------------------------------------------|
------------------------------------------------------------------|
------------------------------------------------------------------|
------------------------------------------------------------------|
-----2-----3-----4-----3-----2-2-----2-----3-----5/4---5/4---5/4--|
-0-1---0-1---0-1---0-1---0-1-----0-1---0-1-----0-3/2-0-3/2-0-3/2--|
 \'     \'     \'     \'     \'       \'     \'       \'     \'     \'
------------------------------------------------------------------|
------------------------------------------------------------------|
------------------------------------------------------------------|
-------------------------------------------------------------4----|
-----2-----3-----4-----3-----2-2-----2-----3-----4-----3-----2----|
-0-1---0-1---0-1---0-1---0-1-----0-1---0-1---0-1---0-1----0-------|
 \'     \'     \'     \'     \'       \'     \'     \'     \'      \'

----------------------------------------------|
----------------------------------------------|
----------------------------------------------|
----------------------------------------------|
-----2-----3-----4-----3-----2-2-----2-----3--|
-0-1---0-1---0-1---0-1---0-1-----0-1---0-1----|
 \'     \'     \'     \'     \'       \'     \'
----------------------------------------|
----------------------------------------|
----------------------------------------|
-------------------------------------2--|
--5/4---5/4---5/4---5/4---5/4---5/4--2--|
--3/2-0-3/2-0-3/2-0-3/2-0-3/2-0-3/2--0--|
      \'     \'     \'     \'     \'

Lead In
----------------------------------------|
----------------------------------------|
----------------------------------------|
------8------8------8------8------8~~~--|
----7------7------7------7------7-------|
--0------0------0------0------0---------|
  \'   *  \'   *  \'   *  \'   *  \'   *

* = Here it is a Semi-Harmonic (Give it a slightest touch of your thumb)


Verse (First Part)(6 Times)
------------------------------------------------------------|
------------------------------------------------------------|
------------------------------------------------------------|
------------------5/7--8/7--5/7-------------------5/7--5/7--|
------------------5/7--8/7--5/7-------------------5/7--5/7--|
-0-0-0-0-0-0-0-0--3/5--6/5--3/5--0-0-0-0-0-0-0-0--3/5--3/5--|
 \' \' \' \' \' \' \' \'                 \' \' \' \' \' \' \' \'

First Part With the Lyrics:

-End of passion play, crumbling away
-I\'m your source of self-destruction
-Veins that pump with fear, sucking darkest clear
-Leading on your death\'s construction


Verse (Second Part)(2 Times)
------------------------------------------------------------|
------------------------------------------------------------|
------------------------------------------------------------|
------------------4-4---5/4-4-4-------------------4----4----|
------------------0-2---3/2-0-2-------------------0h2--0h2--|
-2-2-2-2-2-2-2-2----------------2-2-2-2-2-2-2-2-------------|
 \' \' \' \' \' \' \' \'                \' \' \' \' \' \' \' \'

Second Part with the Lyrics:

-Taste me, you will see
-More is all you need
-You\'re dedicated to
-How I\'m killing you


Lead in To Pre-Chorus
------------------|
------------------|
-4-4-4-4-4-4-4-4--|
-4-4-4-4-4-4-4-4--|
-2-2-2-2-2-2-2-2--|
------------------|
 \' \' \' \' \' \' \' \'

Pre-Chorus (3 Times)
---------------------------------------------------------------------|
---------------------------------------------------------------------|
-9---------7--9-----------------------------------------------8------|
-9---------7--9--------9--------------------10---9------------8---9--|
-7---------5--7---7-9-----10-9h10-----------10---9------------6---9--|
-0----0-0---------------------------8-8-8-8--8---7---8-8-8-8------7--|
      \' \'         \' \'               \' \' \' \'          \' \' \' \'

Then This
-----------------------------------------------------------------------------|
-----------------------------------------------------------------------------|
-9---------7--9--------------------------------------------------------------|
-9---------7--9--------9--------------------10---9-----7--5--4------4--------|
-7---------5--7---7-9-----10-9h10-----------10---9-----9--7--6------6--7--6--|
-0----0-0---------------------------8-8-8-8--8---7---------------------8--7--|
      \' \'         \' \'               \' \' \' \'            \'  \'  \'      \'  \'  \'
Pre-Chorus with the Lyrics:

-Come crawling faster
-Obey your master
-Your life burns faster
-Obey your master


Lead In to Chorus
--------|--------|
--------|--------|
--------|--------|
--2--2--|--3--3--|
--2--2--|--3--3--|
--0--0--|--1--1--|

Lead In to Chorus with the Lyrics:

-Master!
-Master!

Chorus (First Part)
--------------------------------------------------|
--------------------------------------------------|
--------------------------------------------------|
----------------------------5~-------4-------2~---|
--2~-----------------5~-----3~--0-0--2--0-0--0~---|
--0~--0-0--2p0--0-0--3~---------------------------|
      \' \'       \' \'             \' \'     \' \'

--------------------------------------------------|
--------------------------------------------------|
--------------------------------------------------|
--7~-------5-------4~-------9~-------7-------5~---|
--5~-------3-------2~-------7~-------5-------3~---|
------3-3-----3-3---------------0-0-----0-0-------|
      \' \'     \' \'           \' \'     \' \'

First Chorus Part with the Lyrics:
-Master of puppets, I\'m pulling your strings
-Twisting your mind and smashing your dreams
-Blinded by me, you can\'t see a thing
-Just call my name, \'cause I\'ll hear you scream


Chorus (Second Part)
--------|--------|-------------------------|--------|--------|
--------|--------|-------------------------|--------|--------|
--------|--------|-------------------------|--------|--------|
--2--2--|--3--3--|---------------------5~--|--2--2--|--3--3--|
--2--2--|--3--3--|--2~-----------------3~--|--2--2--|--3--3--|
--0--0--|--1--1--|--0~--0-0--2p0--0-0------|--0--0--|--1--1--|
                        \' \'       \' \'

Second Chorus Part with the Lyrics:
-Master!
-Master!
-Just call my name, \'cause I\'ll hear you scream
-Master!
-Master!


------------------------------------------------------------------|
------------------------------------------------------------------|
------------------------------------------------------------------|
-------------------------------------------------------------4----|
-----2-----3-----4-----3-----2-2-----2-----3-----4-----3-----2----|
-0-1---0-1---0-1---0-1---0-1-----0-1---0-1---0-1---0-1----0-------|
 \'     \'     \'     \'     \'       \'     \'     \'     \'      \'

----------------------------------------------|
----------------------------------------------|
----------------------------------------------|
----------------------------
Добавлено: 31.07.2012
Другие материалы по этой песне:
  • Аккорды и текст

Страница создана 13.07.2012
http://primanota.ru/metallica/cliffem-all-album-chords.htm
Привет, Гость.
Предлагаем пройти революционный курс по гитаре.
Подарок от PrimaNota.Ru, забирай!