PrimaNota.ru - самый крупный в мире бесплатный архив песенных текстов, аккордов, табулатур и нот


Metallica - Black Album (album) - таба, бас-таба, драм-таба, видео

Регистрация Запомнить меня
Войти через:  Facebook Google Twitter Vk Yandex Mail.ru

Metallica - Black Album (album) - таба, бас-таба, драм-таба, видео

Печатать
Просмотров: 601
Уроки эстрадного вокала в Санкт-Петербурге
BLACK ALBUM
1.Enter Sandman
2.Sad But True
3.Holier Than Thou
4.The Unforgiven
5.Wherever I May Roam
6.Don't Tread On Me
7.Through The Never
8.Nothing Else Matters
9.Of Wolf & Man
10.The God That Failed
11.My Friend Of Misery
12.The Struggle Within



1.Enter Sandman

Intro : 6x
            

|----------------------------------------------------------|
|----------------------------------------------------------|
|----------------------------------------------------------|
|-----------5-----------------------5----------------------|
|-------7-------------7---------8--------------7-----------|
|---0----------6---5--------0-----------6---5--------------|
|                                                          |
|---0------------------------------------------------------|
|---0------------------------------------------------------|
|---0------------------------------------------------------|
|---2------------------------------------------------------|
|----------------------------------------------------------|
|----------------------------------------------------------|
           ^
W/ Wah - Listen to recording, he does it twice. At 0:07 and 0:16

0:23

Play this Twice

|----------------------------------------------------------|
|----------------------------------------------------------|
|----------------------------------------------------------|
|-2--------------------------------------------------------|
|-2--2--2--2--2--2--2--5/7---2--2--2--2--2--2--2--2--5/7---|
|-0--0--0--0--0--0--0--------0--0--0--0--0--0--0--0--------|
|  							   |
|----------------------------------------------------------|
|----------------------------------------------------------|
|----------------------------------------------------------|
|-2------------(2)-------------(2)-------------(2)---------|
|-2------------(2)-------------(2)-------------(2)---------|
|-0------------(0)-------------(0)-------------(0)---------|

0:32

Play this twice

|----------------------------------------------------------|
|----------------------------------------------------------|
|----------------------------------------------------------|
|----------------------------------------------------------|
|-2--2---5/7----2--2--2--3-----2--2---5/7-----2--2--2--3---|
|-0--0-------6--0--0--0--1-----0--0--------6--0--0--0--1---|
|  							   |
|----------------------------------------------------------|
|----------------------------------------------------------|
|--------------------------------------------------------2-|
|-2------------(2)-------------(2)-------------(2)-------2-|
|-2------------(2)-------------(2)-------------(2)-------0-|
|-0------------(0)-------------(0)-------------(0)---------|

0:39
Play this 4 times.	

|----------------------------------------------------------|
|----------------------------------------------------------|
|----------------------------------------------------------|
|----------------------------------------------------------|
|-2--2---5/7-------2--2--3-----2--2---5/7--------2--2--3---|
|-0--0-------6--5--0--0--1-----0--0--------6--5--0--0--1---|
|  							   |
|----------------------------------------------------------|
|----------------------------------------------------------|
|----------------------------------------------------------|
|-2------------(2)-------------(2)-------------(2)---------|
|-2------------(2)-------------(2)-------------(2)---------|
|-0------------(0)-------------(0)-------------(0)---------|


0:55			
Main Riff : play twice

<-------3x------------->		
|-----------------------|----------------------------------|
|-----------------------|----------------------------------|
|-----------------------|----------------------------------|
|-----------------------|----------------------------------|
|-2----2-----7----------|-----5------4-------4---5---4-----|
|-0----0---------6----5-|-----3---0--2---0---2---3---2-----|
|  							   |
|-----------------------|----------------------------------|
|-----------------------|----------------------------------|
|-----------------------|----------------------------------|
|-----------------------|----------------------------------|
|-2----2-----7----------|-----5------4-------4---5---4-----|
|-0----0---------6----5-|-----3---0--2---0---2---3---2-----|

Verse Riff
|----------------------------------------------------------|
|----------------------------------------------------------|
|----------------------------------------------------------|
|-2--------------------------------------------------------|
|-2--2--2--2--2--2--2--3------2--2--2--2--2--2--2--2--3----|
|-0--0--0--0--0--0--0--1------0--0--0--0--0--0--0--0--1----|
|  							   |
|----------------------------------------------------------|
|----------------------------------------------------------|
|----------------------------------------------------------|
|----------------------------------------------------------|
|----------------------32----------------------------32--|
|-0--0--0--0--0--0--0--1----0--0--0--0--0--0--0--0--1--|

1Say your prayers little one,          Don\'t forget my son
2      I tuck you in,  warm within, Keep you free from sin


|-----------------------------------------------------|
|-----------------------------------------------------|
|-----------------------------------------------------|
|-----------------------------------------------------|
|-2--2--2--2--2--2--2-----5------4-------4---5---4----|
|-0--0--0--0--0--0--0-----3---0--2---0---2---3---2----|
|  					              |
|-----------------------------------------------------|
|-----------------------------------------------------|
|-----------------------------------------------------|
|-----------------------------------------------------|
|-------------------------5------4-------4---5---4----|
|-0--0--0--0--0--0--0-----3---0--2---0---2---3---2----|

1       To include Every      One
2            Till the sandman he comes.           Ah

Pre chorus.
|--------3x---------|

|---------------------|---------------------------|
|---------------------|---------------------------|
|----------2----------|---------------------------|
|------4--------------|---------------------------|
|-------------3---2---|--4--4--4--4--2--3--4------|
|--2------------------|--2--2--2--2--0--1--2------|
|  						  |
|---------------------|---------------------------|
|---------------------|---------------------------|
|----------2----------|----------2----------------|
|------4--------------|-------4-------------------|
|-------------3---2---|--------------3---2--------|
|--2------------------|---2------------------14/--|

Sleep with one eye open, Gripping your pillow tight.

Chorus

|------3x------|

|---------------|-------------------------------------------|
|---------------|-------------------------------------------|
|---------------|-------------------------------------------|
|--------5----4-|---2---------------------------------------|
|---4----3----2-|---2---------------------------------------|
|---2-----------|---0---------------------------------------|
|  						 	    |
|---------------|-------------------------------------------|
|---------------|-------------------------------------------|
|---------------|-------------------------------------------|
|---------------|------------------------4--0---------------|
|--------3----2-|------5---2---5---4--0---------------------|
|---2-----------|-------------------------------------------|

Exit Light
Enter Ni-ight


|---------------|-------------------------------------------|
|---------------|-------------------------------------------|
|---------------|-------------------------------------------|
|--------5----4-|---2---------------------------------------|
|---4----3----2-|---2---------------------------------------|
|---2-----------|---0---------------------------------------|
|  						 	    |
|---------------|-------------------------------------------|
|---------------|-------------------------------------------|
|---------------|-------------------------------------------|
|---------------|------------------------2------------------|
|--------3----2-|------5---2---5---2--2-----2---------------|
|---2-----------|-------------------------------------------|

Take my hand

|-------------------------------|
|-------------------------------|
|-------------------------------|
|-------------------------------|
|---5------4-------4---5---4----|
|---3---0--2---0---2---3---2----|
|                               |
|-------------------------------|
|-------------------------------|
|-------------------------------|
|-------------------------------|
|-------------------------------|
|-------------------------------|

We\'re off to never-never land


<-------3x------------>		
|-----------------------|----------------------------------|
|-----------------------|----------------------------------|
|-----------------------|----------------------------------|
|-----------------------|----------------------------------|
|-2----2-----7----------|-----5------4-------4---5---4-----|
|-0----0---------6----5-|-----3---0--2---0---2---3---2-----|
|  							   |
|-----------------------|----------------------------------|
|-----------------------|----------------------------------|
|-----------------------|----------------------------------|
|-----------------------|----------------------------------|
|-2----2-----7----------|-----5------4-------4---5---4-----|
|-0----0---------6----5-|-----3---0--2---0---2---3---2-----|


<-------3x------------->		
|-----------------------|----------------------------------|
|-----------------------|----------------------------------|
|-----------------------|----------------------------------|
|-----------------------|----------------------------------|
|-2----2-----7----------|-----5------4-------4---5---4-----|
|-0----0---------6----5-|-----3---0--2---0---2---3---2-----|
|  							   |
|-----------------------------Gradually Bend----------12/--|
|-12hb----14-12-14------14fb--------------------------14/--|
|-12------14-12-14------14fb-------------------------------|
|-------15----------12-------------------------------------|
|----------------------------------------------------------|
|----------------------------------------------------------|
W/Wah



|----------------------------------------------------------|
|----------------------------------------------------------|
|----------------------------------------------------------|
|-2--------------------------------------------------------|
|-2--2--2--2--2--2--2--3------2--2--2--2--2--2--2--2--3----|
|-0--0--0--0--0--0--0--1------0--0--0--0--0--0--0--0--1----|
|  							   |
|----------------------------------------------------------|
|----------------------------------------------------------|
|----------------------------------------------------------|
|----------------------------------------------------------|
|----------------------32----------------------------32--|
|-0--0--0--0--0--0--0--1----0--0--0--0--0--0--0--0--1--|

Somethings wrong, shut the light, heavy thoughts tonight



|-----------------------------------------------------|
|-----------------------------------------------------|
|-----------------------------------------------------|
|-----------------------------------------------------|
|-2--2--2--2--2--2--2-----5------4-------4---5---4----|
|-0--0--0--0--0--0--0-----3---0--2---0---2---3---2----|
|  					              |
|-----------------------------------------------------|
|---------------------------12fb--12fb--12fb----------|
|---------------------------12hb--12fb--12fb----------|
|---------------------------------------------14/-----|
|-----------------------------------------------------|
|-0--0--0--0--0--0--0---------------------------------|
			     W/Wah	

And they arent of snow wh-------ite


|----------------------------------------------------------|
|----------------------------------------------------------|
|----------------------------------------------------------|
|-2--------------------------------------------------------|
|-2--2--2--2--2--2--2--3------2--2--2--2--2--2--2--2--3----|
|-0--0--0--0--0--0--0--1------0--0--0--0--0--0--0--0--1----|
|  							   |
|----------------------------------------------------------|
|----------------------------------------------------------|
|----------------------------------------------------------|
|----------------------------------------------------------|
|----------------------32----------------------------32--|
|-0--0--0--0--0--0--0--1----0--0--0--0--0--0--0--0--1--|

Dreams of war, dreams of lies, dreams of dragons fire


|-----------------------------------------------------|
|-----------------------------------------------------|
|-----------------------------------------------------|
|-----------------------------------------------------|
|-2--2--2--2--2--2--2-----5------4-------4---5---4----|
|-0--0--0--0--0--0--0-----3---0--2---0---2---3---2----|
|  					              |
|-----------------------------------------------------|
|-----------------------------------------------------|
|-----------------------------------------------------|
|-----------------------------------------------------|
|-------------------------5------4-------4---5---4----|
|-0--0--0--0--0--0--0-----3---0--2---0---2---3---2----|

And of things that will bite, yeah!


Pre chorus.
|--------3x---------|
|---------------------|---------------------------|
|---------------------|---------------------------|
|----------2----------|---------------------------|
|------4--------------|---------------------------|
|-------------3---2---|--4--4--4--4--2--3--4------|
|--2------------------|--2--2--2--2--0--1--2------|
|  						  |
|---------------------|---------------------------|
|---------------------|---------------------------|
|----------2----------|----------2----------------|
|------4--------------|-------4-------------------|
|-------------3---2---|--------------3---2--------|
|--2------------------|---2------------------14/--|

Sleep with one eye open, Gripping your pillow tight.

Chorus

|------3x------|

|---------------|-------------------------------------------|
|---------------|-------------------------------------------|
|---------------|-------------------------------------------|
|--------5----4-|---2---------------------------------------|
|---4----3----2-|---2---------------------------------------|
|---2-----------|---0---------------------------------------|
|  						 	    |
|---------------|-------------------------------------------|
|---------------|-------------------------------------------|
|---------------|-------------------------------------------|
|---------------|------------------------4--0---------------|
|--------3----2-|------5---2---5---4--0---------------------|
|---2-----------|-------------------------------------------|

Exit Light
Enter Ni-ight


|---------------|-------------------------------------------|
|---------------|-------------------------------------------|
|---------------|-------------------------------------------|
|--------5----4-|---2---------------------------------------|
|---4----3----2-|---2---------------------------------------|
|---2-----------|---0---------------------------------------|
|  						 	    |
|---------------|-------------------------------------------|
|---------------|-------------------------------------------|
|---------------|-------------------------------------------|
|---------------|------------------------2------------------|
|--------3----2-|------5---2---5---2--2-----2---------------|
|---2-----------|-------------------------------------------|


Take my hand
|-------------------------------|
|-------------------------------|
|-------------------------------|
|-----------------------------2-|
|---5------4-------4---5---4--2-|
|---3---0--2---0---2---3---2--0-|
|                               |
|-------------------------------|
|-------------------------------|
|-------------------------------|
|-----------------------------2-|
|-----------------------------2-|
|-----------------------------0-|
We\'re off to never-never land


Note : This tab for the solo is greatly inspired by the original
tab of the solo, and many thanks to the author of that tab. It
Was quite accurate but wrong in a couple of places, basiclly here
I changed it to be as close as possible to Kirk.

For the solo, James plays the main riff twice, then his part of
the prechorus, and his part of the chorus. Its amazing how well
the solo fits in.

W/Wah        
|---------------------------------------------------------|
|-15---15---15---12-----15---------12-12----15fb-15bfb-/--|
|-14hb-14hb-14hb--14fb--14fb---14hb------14---------------|
|---------------------------------------------------------|
|---------------------------------------------------------|
|---------------------------------------------------------|

                                                    
Rock back and forth on pedal       
|-------------------------------------------------|
|-------------------------------------------------|
|-12/14-14-14-1412-12-12-12/14-14-14-1412-12-12-|
|-10/12-12-12-1210-10-10-10/12-12-12-1210-10-10-|
|-------------------------------------------------|
|-------------------------------------------------|
                                        
           
|-------------------------------------|
|-------------------------------------|
|-14p12-------------------------------|
|-------14-14p12----------------------|
|----------------14-14p12-------------|
|--------------------------15--12~~--|
                    

|-------12-10-12-------12-10-12------12-12-12-------12-12-12-|
|-15fb----------15fb--------------15fb-----------15fb--------|
|------------------------------------------------------------|
|------------------------------------------------------------|
|------------------------------------------------------------|
|------------------------------------------------------------|
                                                               
                   

|-12-12-12-15-12-15p12h15-12h15p12-12-15-12-12-14-14-|
|----------------------------------------------------|
|----------------------------------------------------|
|----------------------------------------------------|
|----------------------------------------------------|
|----------------------------------------------------|


           
|-17p14----17p14----17p14-19p15----19p15----19p15-|
|-------14-------14-------------17-------17-------|
|-------------------------------------------------|
|-------------------------------------------------|
|-------------------------------------------------|
|-------------------------------------------------|


                                                     
             
                              
|-21p17----21p17----21p17----22fb~~~~~~(R)/-------------------|
|-------17-------17-------17---------------9hb--------9hb---9-|
|------------------------------------------9fb--------9fb---9-|
|-------------------------------------------------------------|
|-------------------------------------------------------------|
|-------------------------------------------------------------|




                     
|-------------------------------------------------------------|
|-9hb--9hb-----------------10------10-8-7---7/87---7---------|
|-9fb--9fb--7--9--------7-----------------9-------9---9-7---7-|
|------------------7h9------------------------------------9---|
|-------------------------------------------------------------|
|-------------------------------------------------------------|

			      Lots of wah. Treble on all notes in 
			      16th fret. Bass on 14th.(toe up)
                    
|-----------------------------------------------------------------|
|-----------------------------------------------------------------|
|-9p7--------------------------16fb-14-----14-16-16fb--14------14-|
|-----9p7---7-9-7----------------------16---------------16--------|
|---------9-------9-6-7-------------------------------------------|
|-----------------------10-7-------------------------------------|


                                         
                     
|--------------------------------------|
|--------------------------------------|
|-16-16fb-14----14-16-16fb-14-------14-|
|---------------16------------16-16----|
|--------------------------------------|
|--------------------------------------|


                        Note : Slowly release bend while tremelo picking.
					
|-----------------------------------------------|
|---------17---------17--------17---------------|
|-16bfb----16hb----16fb----------16fb---(R)-----|
|-----------------------------------------------|
|-----------------------------------------------|
|-----------------------------------------------|


                                                          
  
|-21p17---21p17---21p17---21p17---21p17---21p17---|
|------17------17------17------17------17------17-|
|-------------------------------------------------|
|-------------------------------------------------|
|-------------------------------------------------|
|-------------------------------------------------|




|-22fb--21-22--22fb--21-22-22fb~~~~~--22-|
|-----------------------------------------|
|-----------------------------------------|
|-----------------------------------------|
|-----------------------------------------|
|-----------------------------------------|




|----------------------------------------------------|
|-10p9p8p7-------------------------------------------|
|----------9-9p7-------------------------------------|
|----------------9-9p7-5--7fb----5~~-----------------|
|-------------------------------------7~~~~~~~~~-5h7-|
|----------------------------------------------------|


                             

     
|--------------------------------------------------|
|--------------------------------------------------|
|--------------------------------------------------|
|--------------------------------------------------|
|-4~~~~~~~~~~--0--2--2--2--2--2--2--2--2--2--2--2--|
|--------------------------------------------------|
    Wah off.      Dip bar and release on each stroke.


Back to the usual tab form.

Play 4x

|----------------------------------------------------------|
|----------------------------------------------------------|
|----------------------------------------------------------|
|-----------5-----------------------5----------------------|
|-------7-------------7---------7--------------7-----------|
|---0----------6---5--------0-----------6---5--------------|
|                                                          |
|----------------------------------------------------------|
|----------------------------------------------------------|
|----------------------------------------------------------|
|----------------------------------------------------------|
|----------------------------------------------------------|
|----------------------------------------------------------|

|--------8x-----------|
|---------------------|---------------------------|
|---------------------|---------------------------|
|----------2----------|---------------------------|
|------4--------------|---------------------------|
|-------------3---2---|--4--4--4--4--2--3--4------|
|--2------------------|--2--2--2--2--0--1--2------|
|  						  |
|---------------------|---------------------------|
|---------------------|---------------------------|
|----------2----------|----------2----------------|
|------4--------------|-------4-------------------|
|-------------3---2---|--------------3---2--------|
|--2------------------|---2------------------14/--|

Chorus

|------3x------|

|---------------|-------------------------------------------|
|---------------|-------------------------------------------|
|---------------|-------------------------------------------|
|--------5----4-|---2---------------------------------------|
|---4----3----2-|---2---------------------------------------|
|---2-----------|---0---------------------------------------|
|  						 	    |
|---------------|-------------------------------------------|
|---------------|-------------------------------------------|
|---------------|-------------------------------------------|
|---------------|------------------------4---0--------------|
|--------3----2-|------5---2---5---4--0---------------------|
|---2-----------|-------------------------------------------|

Exit Light
Enter Ni-ight


|---------------|-------------------------------------------|
|---------------|-------------------------------------------|
|---------------|-------------------------------------------|
|--------5----4-|---2---------------------------------------|
|---4----3----2-|---2---------------------------------------|
|---2-----------|---0---------------------------------------|
|  						 	    |
|---------------|-------------------------------------------|
|---------------|-------------------------------------------|
|---------------|-------------------------------------------|
|---------------|-------------------------------------------|
|--------3----2-|-------------------------------------------|
|---2-----------|-------------------------------------------|

Grain of sand


|------3x------|

|---------------|-------------------------------------------|
|---------------|-------------------------------------------|
|---------------|-------------------------------------------|
|--------5----4-|---2---------------------------------------|
|---4----3----2-|---2---------------------------------------|
|---2-----------|---0---------------------------------------|
|  						 	    |
|---------------|-------------------------------------------|
|---------------|-------------------------------------------|
|---------------|-------------------------------------------|
|---------------|------------------------4--0---------------|
|--------3----2-|------5---2---5---4--0---------------------|
|---2-----------|-------------------------------------------|

Exit Light
Enter Ni-ight


|---------------|-------------------------------------------|
|---------------|-------------------------------------------|
|---------------|-------------------------------------------|
|--------5----4-|---2---------------------------------------|
|---4----3----2-|---2---------------------------------------|
|---2-----------|---0---------------------------------------|
|  						 	    |
|---------------|-------------------------------------------|
|---------------|-------------------------------------------|
|---------------|-------------------------------------------|
|---------------|------------------------4------------------|
|--------3----2-|------5---0---5---2--2-----4---------------|
|---2-----------|-------------------------------------------|

Take my hand
|-------------------------------|
|-------------------------------|
|-------------------------------|
|-----------------------------2-|
|---5------4-------4---5---4--2-|
|---3---0--2---0---2---3---2--0-|
|                               |
|-------------------------------|
|-------------------------------|
|-------------------------------|
|-----------------------------2-|
|-----------------------------2-|
|-----------------------------0-|

We\'re off to never-never land

<-------2x-------------->	
|-----------------------|
|-----------------------|
|-----------------------|
|-----------------------|
|-2----2-----7----------|
|-0----0---------6----5-|
|  			|
|-----------------------|
|-----------------------|
|-----------------------|
|-(2)-------------------|
|-(2)-------------------|
|-(0)-------------------|

<-------4x-------------->		
|-----------------------|----------------------------------|
|-----------------------|----------------------------------|
|-----------------------|----------------------------------|
|-----------------------|----------------------------------|
|-2----2-----7----------|-----5------4-------4---5---4-----|
|-0----0---------6----5-|-----3---0--2---0---2---3---2-----|
|  							   |
|-----------------------|----------------------------------|
|-----------------------|----------------------------------|
|-----------------------|----------------------------------|
|-----------------------|----------------------------------|
|-2----2-----7----------|-----5------4-------4---5---4-----|
|-0----0---------6----5-|-----3---0--2---0---2---3---2-----|



|----------------------------------------------------------|
|----------------------------------------------------------|
|----------------------------------------------------------|
|----------------------------------------------------------|
|-2--2---5/7-------2--2--3-----2--2---5/7--------2--2--3---|
|-0--0-------6--5--0--0--1-----0--0--------6--5--0--0--1---|
|							   |
|----------------------------------------------------------|
|----------------------------------------------------------|
|----------------------------------------------------------|
|-----------5--------------------------5-------------------|
|-------7-------------7------------7--------------7--------|
|---0----------6---5-----------0-----------6---5-----------|

Repeat and fade.
===================

For a Big ending while plaing it Live just do this:

|-----------------------------------------|
|-----------------------------------------|
|-----------------------------------------|
|--------------------------------------2--|
|---5------4-------4------5------4-----2--|
|---3---0--2---0---2------3------2-----0--|
|                                         |
|-----------------------------------------|
|-----------------------------------------|
|-----------------------------------------|
|--------------------------------------2--|
|---5------4-------4------5------4-----2--|
|---3---0--2---0---2------3------2-----0--|

2.Sad But True

FIG 1                                 END FIG 1
|-------------|---------|---------------|-------------------------------------|
|-------------|---------|---------------|-------------------------------------|
|-2---2--2--2-|--3---3--|--2------------|-------------------------------------|
|-2---2--2--2-|--3---3--|--2---/7--6--5-|--3H5P3H5P3H5P3H5P3H5P3H5P3H5P3H5P3H5|
|-0---0--0--0-|--1---1--|--0------------|-------------------------------------|
|-------------|---------|---------------|-------------------------------------|



---------------------------------------------
PLAY FIG 1.
---------------------------------------------


FIG 2
|-----------------------------|
|-----------------------------|
|-----------------------------|
|--2----2--2------------------|
|--2----2--2--5P0--1P0--------|
|--0----0--0-------------3P0--|


|-----------------------|
|-----------------------|
|-----------------------|
|-2----2--2-------------|
|-2----2--2----5P0-5-5--|
|-0----0--0-------------|



VERSES 1,2 AND 3
|------------------------|-----------------------|
|------------------------|-----------------------|
|------------------------|--------------3--------|X 4 EACH TIME
|-2--2--2-2-2--0---2--2--|-2--2--2-2-2--3--2--2--|
|-2--2--2-2-2--0---2--2--|-2--2--2-2-2--1--2--2--|
|-0--0--0-0-0------0--0--|-0--0--0-0-0-----0--0--|


CHOURS
|---------------------------|--------------------------------|
|---------------------------|--------------------------------|
|---------------------------|--------------------------------|
|------3-3-0--3--2----------|------3---3--0------------------|
|------3-3-0--3--2----------|------3---3--0-----7---7--7--7--|
|-0-0---------------0--0--0-|-0-0------------0--5---5--5--5--|




|--------------------------------------|
|--------------------------------------|
|--------------------------------------|
|--------------------------------------|
|--7---7---8---8--5---7---5---5--5--5--|
|--5---5---6---6--3---5---3---3--3--3--|




|-------------------------------------|
|-------------------------------------|
|-------------------------------------|X 2
|---------5---5---5---5---------------|
|--5---5--3---3---3---3------3--3-----|
|--3---3-----------------0---1--1--0--|


REPEAT FIG 2 FIVE TIMES.THEN

|-----------------------|-----------------------------|
|-----------------------|-----------------------------|
|-----------------------|-----------------------------|
|-----------------------|-----------------------------|
|--2---2--2--5P0--5--5--|--2---2--2--------0H1P0------|
|--0---0--0-------------|--0---0--0--0--3----------3--|


|-------------------------|------------------------|-----------------------|
|-------------------------|------------------------|-----------------------|
|-------------------------|------------------------|-----------------------|
|--/7--6--5--2 ~~~~~~~~~~-|--/7--6--5--3 ~~~~~~~~~-|--/7--6--5--2 ~~~~~~~~-|
|-------------------------|------------------------|-----------------------|
|-------------------------|------------------------|-----------------------|


|------------------------|---------------------|---------------------------|
|---------------5--4--3--|------------5--4--3--|---------------------------|
|------------------------|--2------------------|--3---------------------2--|
|--/7--6--5--4-----------|---------------------|----------2--3-5-3-5-3-----|
|------------------------|---------------------|---------------------------|
|------------------------|---------------------|---------------------------|


|------------------|
|------------------|
|------------------|
|-2--3-5-3-5-2--3--|
|---------------1--|
|------------------|


solo 1

|-------------------------------------------------------------------|
|-2/12----------------------------------------------12--12--12------|
|-3/13----------------------------------------------12--12--12------|
|-----------------------------------14\-----12--14------------------|
|-------------------------------------------------------------------|
|-------------------------------------------------------------------|

|----------------------------------------------------------------|
|----------------12----------------------------------------------|
|----------------12----------------------------------------------|
|14------------------14--12------14-12-----------\-------12--14--|
|----------------------------14--**------------------14----------|
|----------------------------------------------------------------|

|----------------------------------------------------------------|
|12--------------------------------------------------------------|
|12------------------------------9p7p6---------------------------|
|----14--12------14----------------------9---7---9-----------\---|
|------------14--**------------------------------**--------------|
|----------------------------------------------------------------|

|----------------------------------------------------------------|
|----------------------------------------------------------------|
|4-h-5p4-----4---------------------------------------------------|
|--------7-------7---5---4-----------------------9---s---5---s---|
|----------------------------5---7-------------------------------|
|--------------------------------**------------------------------|

|--------------------------------------------------------------------------|
|----12--15p12-15p12----12 12-15p12----12h15p12--12h15p12------------------|
|14^-----------------14^-----------14^---------14--------14-12-------------|
|--------------------------------------------------------------14--14------|
|--------------------------------------------------------------------------|
|--------------------------------------------------------------------------|

|----------------------------------------------------------------|
|--------12------------------------------------------------------|
|--------12------14--12------------------------------------------|
|12-h14------14----------14--12----------------------------------|
|--------------------------------14--12-s10--12--10--------------|
|----------------------------------------------------------------|

|----------------------------------------------------------------|
|14^-r---14^-r-------------------14^-r-----------12--------------|
|14^-r---14^-r---14^r12--12--14--14^-r---12------12----------12--|
|----------------------14--------------------14----------14------|
|----------------------------------------------------------------|
|----------------------------------------------------------------|

|----------------------------------------------------------------|
|14^-r---12--14^-r---12--14^-r---12--14^-r-----------------------|
|14^-r---12--14^-r---12--14^-r---12--14^-r---12--14^-------------|
|------------------------------------------------------------12--|
|----------------------------------------------------------------|
|----------------------------------------------------------------|


|------------------------------------------------------------------------|
|------------------------------------------------12-12-13-12-13-15-15-15-|
|---------------------------12----12-14-12-14-14^------------------------|
|---------12----12-14-12-14----14----------------------------------------|
|14-12-14----14----------------------------------------------------------|
|------------------------------------------------------------------------|


|--12h15p12--12--12-12-15p12-12-12-12-12-12-15p12--------------------------|
|--------15-------------------------------------15p13--13-15p13----13--15--|
|----------------------------------------------------14--------14----------|
|--------------------------------------------------------------------------|
|--------------------------------------------------------------------------|
|--------------------------------------------------------------------------|

|-15------15----------|
|-15^-----15^---------|
|---------------------|
|---------------------|
|---------------------|
|---------------------|




solo 2

|----------------------------------------------------------------|
|----------------------------------------------------------------|
|----------------------------------------------------------------|
|2-------2-p-0---2-------2-p-0---2-------------------------------|
|----------------------------------------------------------------|
|----------------------------------------------------------------|


|-------0------------0-------------------------------------------|
|-----------3^-----------3---0-----------------------------------|
|2^------------------------------2^rp0---------------------------|
|----------------------------------------2-----------------------|
|----------------------------------------------------------------|
|----------------------------------------------------------------|
                                                                


|----------------------------------------------------------------|
|----------------------------------------------------------------|
|4^------4^------4^------4^------4^--------------0---------------|
|-----Semi - harmonics-------------------------------2-----------|
|----------------------------------------------------------------|
|----------------------------------------------------------------|


|----------------------------------------------------------------|
|--------12--12--x---12--12------12--12--12--12--x---12--12--12--|
|--------12--12--x---12--12------12--12--12--12--x---12--12--12--|
|-/14------------------------14----------------------------------|
|----------------------------------------------------------------|
|----------------------------------------------------------------|


|--------12----------12------12----------------------------------|
|----12------15^---------15^-----15^-\---------------------------|
|14^-------------------------------------------------------------|
|----------------------------------------------------------------|
|----------------------------------------------------------------|
|----------------------------------------------------------------|

3.Holier Than Thou

Intro Rhythm 1
    ____  ___3___  ___3___  ____  repeat umpteen times....
--|-|--|--|--|--|--|--|--|--|--|-|-----------------------------------------
--|-|--|--|--|--|--|--|--|--|--|-|-----------------------------------------
-/^\|--|--|--|--|--|--|--|--|--|/|-----------------------------------------
2-|[2]-|--|--|--|--|--|--|--|--2-|-----------------------------------------
2-|[2]-|--|--|--|--|--|--|--|--2-|-----------------------------------------
0-|[0]-0--0--0--0--0--0--0--0--0-|-----------------------------------------
(brackets signify the chord is held over from previous measure..)


   Lead in to rhythm 2   
--|---------------------|---------------------|----------------------|-----
--|---------------------|---------------------|----------------------|-----
--|---------------------|---------------------|----------------------|-----
--|---------------------|---------------------|----------------------|-----
--|-0--1--0------------/^\--0^1--------------/^\--0^1----------------|-----
--|----------3--5--3--0-|[0]----0--3--5--3--0-|[0]----0--3--5--3~~~~-|-----
                         /\ P.M.-------| P.M.---|              (~ = vibrato)
Hold on 1st time only ___/
P.M. and pick otherwise...

Rhythm 3 (accompanies lyrics)                     
-----------------------------|-------------------|-------------------------
-----------------------------|-------------------|-------------------------
-----------------------------|-------------------|-------------------------
-----------------2-----------|----------------5--|-------------------------
--0--1--0--------2-----------|-0--1--0--------5--|-------------------------
-----------3--5--0-----------|----------3--5--3--|-------------------------
           PM-|

End of verse riff
----------------------------------------|----------------------------------
----------------------------------------|----------------------------------
----------------------------------------|----------------------------------
--------------------------------------2-|----------------------------------
-0--1--0------------------------------2-|----------------------------------
----------3--5--3--6--6--6-6-6--5--3--0-|----------------------------------


Riff before solo    (Repeat once)   (Repeat twice with this added to end)
---------------------------------|-----------------------------------------
---------------------------------|-----------------------------------------
--------------------------------.|-----------------------------------------
-----------5-7-8-----------8-7-5.|---5-7-----------------------------------
--7--4-6-7-------7--4-6-7--------|-8---------------------------------------
---------------------------------|-----------------------------------------


Repeat the riff and the extra end and end it like this
-----------------------------------|---------------------------------------
-----------------------------------|---------------------------------------
-----------------------------------|---------------------------------------
----5--7-----5--7-----5--7>slide>14|---------------------------------------
--9-------10-------11--------------|---------------------------------------
-----------------------------------|---------------------------------------

4.The Unforgiven

Intro:Starts with a horn


rythm: clean electric
or acoustic guitar:Jaymz
(with fingers)
|--------------------------------|
|-0-----0-----0-----0-----1------|
|---2-----2-----2-----2-----2----|
|-----2-----2-----2-----2-----2--|
|-0------------------------------|
|--------------------------------|
Keep repeating along with the lead
guitar until the verse starts.


lead:clean electric guitar:Kirk
|------------------------------------------|
|------------------------------------------|
|--2--4--4h5---5-4-2----2--4--4h5---5--2---|
|------------------------------------------|
|------------------------------------------|
|------------------------------------------|
Repeat this one more time, then the drums and
bass come in, and a similar sounding but 
different line is played....

|-------------------------------------------|
|-------------------------------------------|
|--2--4--4h5--5--5--5--4---4\---2--2h4--2---|
|------------------------5----2-------------|
|-------------------------------------------|
|-------------------------------------------|

|------------------------------------------------|
|------------5--5--5--3--------------------------|
|--2--4--4h5------------4--4\--1--/4--1--2h4-2---|
|------------------------------------------------|
|------------------------------------------------|
|------------------------------------------------|


Verse 1: Im going to put in Kirk's part of the song.
If you want Jaymz's part of the verses,which is nothing
but a few power chords, go to the CHORD section for the 
unforgiven in OLGA..I recently added a correct file to that also.

Kirk's part (Played right along with the words.)
|-------------------------------------------|
|------------------8--8--7--7---------------|
|-7--5--4--4h5----------------5--5---7------|
|--------------5----------------------------|
|-------------------------------------------|
|-------------------------------------------|
Keep repeating throughtout.. 


|------------------------|
|------------------------|
|--5----4----2----0------|
|---0----0----0----0-----|
|----00---00---00---00---|
|------------------------|
 "on and on. He's known"

play Kirk's intro part for the chorus
then for the next verse, repeat the same
as the first verse.
Then, we get ready for the interlude and the solo
(for all of you who dont know, an interlude is 
the part right before the distortion sounding solo)


Interlude w/ reverb
Played by Kirk

|-------------------------------------------------|
|-----------------------------0-1-3-5-3-1-0h1/3---|
|---4-5-7-5-4h5p4---4-----------------------------|
|-7---------------7---5-5h7-----------------------|
|-------------------------------------------------|
|-------------------------------------------------|

|--3\5-3--2---------------------------------------|
|--3\5-3--3--3h5h3-3------------------------------|
|--------------------4-----------------5----------|
|----------------------5-------------5---5-5/7----|
|----------------------------3/5-6-7--------------|
|------------------------3-5----------------------|

|-------------------7---7-----10--------12---------14-----15--17--|
|--8-7h8p7---7-8-10---8---8-8----8-8/10---10-10/12---12-12--14----|
|----------9------------------------------------------------------|
|-----------------------------------------------------------------|
|-----------------------------------------------------------------|
|-----------------------------------------------------------------|


Solo: also by Kirk (i didnt figure this out, my friend did)
w/ distortion
|-----------------------------------------------------------------|
|--7^--7^---------------------------------------------------------|
|--7^--7^--5------------------------------------5--7--5-7-7/9-7-9-|
|------------7--7^--5------------------------/7-------------------|
|---------------------7-5/3-5-3--------3^-------------------------|
|-------------------------------5-3-5-----------------------------|
                                        (extreme repeated bending) 
|----------------10-------8------10------------------------|
|-7--7-8-7h8--10----10--10--10-10--10----20^^^^^^^^^-17----|
|---9------------------------------------------------------|
|----------------------------------------------------------|
|----------------------------------------------------------|
|----------------------------------------------------------|

|-20^--20^^^--17-17-20p17----17--------------10p9-7-9---9---------|
|-------------------------20----20^------------------10---8-7---7-|
|-----------------------------------------\9------------------9---|
|-------------------------------------17\-------------------------|
|-----------------------------------------------------------------|
|-----------------------------------------------------------------|

|------------------------------12--------12-------12-------12---------|
|---------------------------13----13--------13-------13-------13------|
|-9-7\5-7-5\4-5-4-2----\14-----------14--------14-------14-------14---|
|---------------------------------------------------------------------|
|---------------------------------------------------------------------|
|---------------------------------------------------------------------|

|-12--------12-------12--------------------------------------17-19-20-|
|----13--------13-------13----------------------20^---20^-------------|
|-------14--------14-------14----19^----19^--17-----------------------|
|---------------------------------------------------------------------|
|---------------------------------------------------------------------|
|---------------------------------------------------------------------|

|-19-17-19--17h19p17-----17-------------------------------------------|
|-------------------20^----20-17----20-17-----------------------------|
|-------------------------------19^------19-19^p17-19^p17--19^-19^-17-|
|---------------------------------------------------------------------|
|---------------------------------------------------------------------|
|---------------------------------------------------------------------|

|-------------------------------------------------|
|-20~~~---18h20p18---17~~~~~--18p17~~~~~~~~~~-----|
|-------------------------------------------------|
|-------------------------------------------------|
|-------------------------------------------------|
|-------------------------------------------------|

5.Wherever I May Roam

(INTRO) (SYNTHIZIZED GUITAR 1)(SITAR ARR.)(2x)


E|------------------------------------------------------------------|
B|---------5---5/6---5-----------8---8/10---6---5-------5---5/6---5-|
G|------------------------------------------------------------------|
D|---------2---2/3---2-----------5---5/7----3---2-------2---2/3---2-|
A|------------------------------------------------------------------|
E|---0---------------------0----------------------------------------|

THEN YOU PLAY THIS ONCE...


E|---------------------------------------------------|
B|---------5---5/6---5-----------8---8/10---10/6---5-|
G|---------------------------------------------------|
D|---------2---2/3---2-----------5---5/7----7-/3---2-|
A|---------------------------------------------------|
E|---0---------------------0-----------------------0-|


(INTRO) (GUITAR 2)(PLAYED SIMALTAINIOUSLY WITH GUITAR 1)(2x)

E--------------------------------------------------------|
B--------------------------------------------------------|
G---7---7h8---7~~~---12---12h13---8~---7~~~7---7h8---7~~~|
D--------------------------------------------------------|
A--------------------------------------------------------|
E--------------------------------------------------------|



(RIFF A) (BOTH GUITARS) (2x)

In this riff you can add the strings in
the optional indications to give the chord extra power. 
It sounds more accurate to the way METALLICA plays it. 
You can also add vibrato to give a cool sound.) 





E|-------------------------------------------------------------------------------------------|
B|-------------------------------------------------------------------------------------------|
G|-------------------------------------------------7---7/9-----------------------------------|
D|--------------------------9---9/10---9-----------5---5/7---10---9----------9---9/10---9----|
A|----2---------------------7---7/8----7---------------------8----7----------7---7/8----7----|
E|----0--------------------(0)--------(0)-------------------------0---------(0)--------(0)---|

THEN...
	
E|-------------------|
B|-------------------|
G|-------------------|
D|---7---8---9---10\\-|
A|---7---8---9---10\\-|
E|---5---6---7---8-\\-|


(MAIN RIFF) (BOTH GUITARS)

	
E|------------------------------------------------------------------------------------|
B|------------------------------------------------------------------------------------|
G|------------------------------7---7/9-----------------------------------------------|
D|---------9---9/10---9---------5---5/7---10~---9-----9---9/10---9-----7---8---9---10-|
A|---2-----7---7/8----7---7---------------8-~---7-----7---7/8----7-----7---8---9---10-|
E|---0--------------------0---------------------0----------------------5---6---7---8--|



E|------------------------------------------------------------------------------------|
B|------------------------------------------------------------------------------------|
G|------------------------------7---7/9-----------------------------------------------|
D|---------9---9/10---9---------5---5/7---10~---9-----9---9/10---9-----7---8---9---10-|
A|---2-----7---7/8----7---7---------------8-~---7-----7---7/8----7-----7---8---9---10-|
E|---0--------------------0---------------------0----------------------5---6---7---8--|



E|------------------------------------------------------------------------------------|
B|------------------------------------------------------------------------------------|
G|------------------------------7---7/9-----------------------------------------------|
D|-------------9/10---9---------5---5/7---10~---9-----9---9/10---9-----7---8---9---10-|
A|---5-6-7-8---7/8----7---7---------------8-~---7-----7---7/8----7-----7---8---9---10-|
E|------------------------0---------------------0----------------------5---6---7---8--|

THEN YOU PLAY THIS...


E|------------------------------------------------------------------------------|
B|------------------------------------------------------------------------------|
G|----------------------------------------------------------------------------0-|
D|-------------2----------------------------3-----------------------------2-----|
A|---5-6-7-8---2------------------------3-----------------------------2---------|
E|-------------0--------------------1-----------------------------0-------------|


E|-----------------------------------------------|
B|-----------------------------------------------|
G|-----------------------------------------------|
D|---------------------------3-------------------|
A|-----------------------3-----------------------|
E|-------------------1---------------------------|

(VERSE 1) (GUITAR 1)(MEASURE 1)
			
E|----------------------------------------------------------------------------------------------|
B|----------------------------------------------------------------------------------------------|
G|---------------------------------------------------(2)----------------------------------------|
D|----------2--------------------8--------------------2--------------------8--------------------|
A|--/12-----2--------------------8--------------------0--------------------8--------------------|
E|--/10-----0--------------------6-----------------------------------------6--------------------|

(MEASURE 2)

E|---------------------------------------------------------------------------------------------|
B|---------------------------------------------------------------------------------------------|
G|--------------------------------------------------(2)----------------------------------------|
D|---------2--------------------8--------------------2--------------------8--------------------|
A|---------2--------------------8--------------------0--------------------8--------------------|
E|---0---0-0--------------------6-----------------------------------------6--------------------|


(VERSE 1) (GUTIAR 2)(Once guitar 1 plays measure 1, 
then guitar 2 comes in with this clean riff over guitar 1 measure 2)

E|---------------0-----------|
B|---------------------0-----|
G|---------------------------|	2x
D|---------------------------|
A|---------2-----------------|
E|---0-----------------------|

E|---------------------------|
B|---------------3-----------|
G|---------------------3-----|	2x	
D|---------3-----------------|
A|---1-----------------------|
E|---------------------------|

E|---------------------------|
B|---------------3-----------|
G|---------------------3-----|	2x
D|---------------------------|
A|---------1-----------------|
E|---3-----------------------|

E|---------------------------|
B|------------------3--------|
G|-------------------------3-|	2x
D|------------3--------------|
A|---1-----------------------|
E|---------------------------|


(PRE-CHORUS) 

E|-----------------------------------------------------------------------------------|
B|-----------------------------------------------------------------------------------|
G|------------------------------------------------7---7/9----------------------------|
D|---3---3---4---5-------------9---10---9---------5---5/7---10~---9-----9---9/10---9-|
A|---1---1---2---3---5-6-7-8---7---8----7---7---------------8-~---7-----7---7/8----7-|
E|------------------------------------------0---------------------0------------------|

(CHORUS)

E|-------------------------------------------------------------------------------------|
B|-------------------------------------------------------------------------------------|
G|-------------------------------------------------------------------------------------|
D|---7---8---9---10----3---3-3-----3-----3---2h3---2----2---2-2-----2-----2---2h3---2-|
A|---7---8---9---10----3---3-3-----3-----3--------------2---2-2-----2-----2-----------|
E|---5---6---7---8-----1---1-1-1—1-1-1-1-1--------------0---0-0-0-0-0-0-0-0-----------|

E|-----------------------------------|
B|-----------------------------------|
G|---3---3-3-----3-----3-------------|
D|---3---3-3-----3-----3---2h3---2---|
A|---1---1-1-1-1-1-1-1-1-------------|
E|-----------------------------------|


(BRIDGE)

E|-------------------------|
B|-------------------------|
G|-------------------------|
D|---2----------5----------|
A|---0----------5----------|
E|--------------3----------|




E|------------------------------------------------------------------------------------|
B|------------------------------------------------------------------------------------|
G|------------------------------7---7/9-----------------------------------------------|
D|---------9---9/10---9---------5---5/7---10~---9-----9---9/10---9-----7---8---9---10-|
A|---2-----7---7/8----7---7---------------8-~---7-----7---7/8----7-----7---8---9---10-|
E|---0--------------------0---------------------0----------------------5---6---7---8--|


E|------------------------------------------------------------------------------------|
B|------------------------------------------------------------------------------------|
G|------------------------------7---7/9-----------------------------------------------|
D|---------9---9/10---9---------5---5/7---10~---9-----9---9/10---9-----7---8---9---10-|
A|---2-----7---7/8----7---7---------------8-~---7-----7---7/8----7-----7---8---9---10-|
E|---0--------------------0---------------------0----------------------5---6---7---8--|

	 
E|-----------------------------------------------------------------------------------|
B|-----------------------------------------------------------------------------------|
G|-----------------------------------------------------------------------------------|
D|-------------2----------------------------3----------------------------------------|
A|---5-6-7-8---2------------------------3--------------------------------------------|
E|-------------0--------------------1------------------------------------------------|



(VERSE 2) (GUITAR 1)(MEASURE 1)

   		
E|----------------------------------------------------------------------------------------------|
B|----------------------------------------------------------------------------------------------|
G|---------------------------------------------------(2)----------------------------------------|
D|----------2--------------------8--------------------2--------------------8--------------------|
A|--/12-----2--------------------8--------------------0--------------------8--------------------|
E|--/10-----0--------------------6-----------------------------------------6--------------------|

(MEASURE 2)

E|---------------------------------------------------------------------------------------------|
B|---------------------------------------------------------------------------------------------|
G|--------------------------------------------------(2)----------------------------------------|
D|---------2--------------------8--------------------2--------------------8--------------------|
A|---------2--------------------8--------------------0--------------------8--------------------|
E|---0---0-0--------------------6-----------------------------------------6--------------------|


(VERSE 2) (GUTIAR 2)
(Just do the same thing as you did in verse 1)

E|---------------0-----------|
B|---------------------0-----|
G|---------------------------|	2x
D|---------------------------|
A|---------2-----------------|
E|---0-----------------------|

E|---------------------------|
B|---------------3-----------|
G|---------------------3-----|	2x
D|---------3-----------------|
A|---1-----------------------|
E|---------------------------|

E|---------------------------|
B|---------------3-----------|
G|---------------------3-----|	2x
D|---------------------------|
A|---------1-----------------|
E|---3-----------------------|

E|---------------------------|
B|------------------3--------|
G|-------------------------3-|	2x
D|------------3--------------|
A|---1-----------------------|
E|---------------------------|



(PRE-CHORUS) 
E|-----------------------------------------------------------------------------------|
B|-----------------------------------------------------------------------------------|
G|------------------------------------------------7---7/9----------------------------|
D|---3---3---4---5-------------9---10---9---------5---5/7---10~---9-----9---9/10---9-|
A|---1---1---2---3---5-6-7-8---7---8----7---7---------------8-~---7-----7---7/8----7-|
E|------------------------------------------0---------------------0------------------|

(CHORUS)

E|------------------------------------------------------------------------------------|
B|------------------------------------------------------------------------------------|
G|------------------------------------------------------------------------------------|
D|---7---8---9---10----3---3-3-----3-----3---2h3---2----2---2-2-----2-----2---2h3---2-|
A|---7---8---9---10----3---3-3-----3-----3--------------2---2-2-----2-----2-----------|
E|---5---6---7---8-----1---1-1-1—1-1-1-1-1--------------0---0-0-0-0-0-0-0-0-----------|

E|-----------------------------------|
B|-----------------------------------|
G|---3---3-3-----3-----3-------------|
D|---3---3-3-----3-----3---2h3---2---|
A|---1---1-1-1-1-1-1-1-1-------------|
E|-----------------------------------|


(BRIDGE)

E|-------------------------|
B|-------------------------|
G|-------------------------|
D|---2----------5----------|
A|---0----------5----------|
E|--------------3----------|


(SOLO 1) (WELL, IT ISN'T MUCH OF A SOLO, BUT WHO CARES)(GUITAR 1)

	
E|-------------------------------------|
B|-------------------------------------|
G|----------------------------------9~~|
D|---------------------6h7-6~~-9h10----|
A|---2-----/7---7h8-7~~----------------|
E|---0---------------------------------|


E|----------------------------------------------|
B|----------------------------------------------|
G|----------------------------8-9---11/12---8~~~|
D|-------------------6-7-9-10-------------------|
A|---2-----------7-8----------------------------|
E|---0-----0-0----------------------------------|

(GUITARS 1&2)

	  
E|------------------------------------------|
B|--------------------------------------8---|
G|-----------------------4-5-4---8-9----9---|
D|---------------6-7-6---6-7-6---
Добавлено: 24.03.2012
Другие материалы по этой песне:

Страница создана 24.03.2012
http://primanota.ru/metallica/black-album-album-chords.htm
Привет, Гость.
Предлагаем пройти революционный курс по гитаре.
Подарок от PrimaNota.Ru, забирай!