PrimaNota.ru - самый крупный в мире бесплатный архив песенных текстов, аккордов, табулатур и нот


Metallica - And Justice For All (ver 3) (album) - бас-таба, видео

Регистрация Запомнить меня
Войти через:  Facebook Google Twitter Vk Yandex Mail.ru

Metallica - And Justice For All (ver 3) (album) - бас-таба, видео

Печатать
Просмотров: 173
This album is pretty tough to play from front to back. Lots of slight variations throughout. I did my best
to get them all in there. Some are obviously going to slip through due to the terrible mixing on the album.
I used a few live videos to help verify parts, but Jason and Rob don't always play the same thing. You can
hear the bass a tad better through the mix on the 2006 Japanese reissue, but it's still buried quite a bit.

Tuning is E standard for the whole album. Jason does use a very small amount of overdrive if you insist on
having it.

ENJOY!






Metallica-Blackened

Reverse Intro

Intro
|---------------------|-----------------------------|----------------||
|---------------------|-----------------------------|----------------||
|-1-----2-33------R---|-----R-----------------------|----------------||
|---2-3-----1-0-------|-0---------------------------|- rest a while -||

Riff 1
|-----------------------------|-----------------------------||4x
|-----------------------------|-----------------------------||
|---7---7---7-8-7---7---7---7-|---7---7---7-8-7-1-----2-33--||
|-0---0---0-------0---0---6---|-0---0---0---------2-3-----1-||

Riff 2
|-------------------------||4x
|-------------------------||
|-------------1-----2-1---||
|-0-0-0-0-0-0---2-3-----3-||

Riff 2a
|-------------------------|---|-------------------------|-------------------------|
|-------------------------|-%-|-------------------------|-------------------------|
|-------------1-----2-1---|-%-|-------------1-----1-----|-------------1-----2-1---|
|-0-0-0-0-0-0---2-3-----3-|---|-0-0-0-0-0-0---2-3---2-3-|-3-3-3-3-3-3---2-3-----3-|

|-------------------------|---|-------------------------|-------------------------||
|-------------------------|-%-|-------------------------|-------------------------||
|-------------1-----2-1---|-%-|-------------1-----1-----|-------------1-----2-3---||
|-0-0-0-0-0-0---2-3-----3-|---|-0-0-0-0-0-0---2-3---2-3-|-3-3-3-3-3-3---2-3-----1-||

Play Riff 1

Riff 1a
|-------------------------------------||
|-------------------------------------||
|---7---7---7-8-7---7---7---7---------||
|-0---0---0-------0---0---6---0-0-0-0-||

Riff 3
|-----------------|-----------------|-----------------|-----------------|
|-----------------|-----------------|-----------------|-----------------|
|-7---------------|-5-------3-------|-----------------|-----R-------R---|
|-0-----------5-5-|-----3-3-----3-3-|-2---------------|-333-----333-----|

|-----------------|-----------------|-----------------|-----------------||
|-----------------|---------|  .  |-|-----------------|-----------------||
|-7---------------|-5-------3--3----|-----------------|-------------R---||
|-0-----------5-5-|-----3-3-------3-|-2---------------|-3-333-0-2-2-----||

Rest A Bit
Play Riff 2a
Play Riff 2a
Play Riff 1
Play Riff 1a

Riff 3a
|-----------------|-----------------|-----------------|-----------------|
|-----------------|-----------------|-----------------|-----------------|
|-7---------------|-5-------3-------|-----------------|-----R-------R---|
|-0-----------5-5-|-----3-3-----3-3-|-2---------------|-333-----333-----|

|-----------------|-----------------|-----------------|-----------------|---|---------||
|-----------------|---------|  .  |-|-----------------|-----------------|-%-|---------||
|-7---------------|-5-------3--3----|-----------------|-------------R---|-%-|-----R---||
|-0-----------5-5-|-----3-3-------3-|-2---------------|-3-333-0-2-2-----|---|-1-1-----||

Lead In
|-----------------|-----------------|-----------------|-----------------|
|-----------------|-----------------|-----------------|-----------------|
|-----------------|-----------------|-----------------|-----------------|
|-0---------------|(0)--------------|(0)--------------|(0)--------------|

|-----------------|-----------------|-----------------|-----------------|
|-----------------|-----------------|-----------------|-----------------|
|-6-6-6-6-6-6-6-6-|-6-6-6-6-6-6-6---|-----------------|-----------------|
|-----------------|---------------00|-0-------------00|-0-------------00|

|-----------------|-----------------||
|-----------------|-----------------||
|-----------------|-6-6---6-6-------||
|-0-------------00|-----00----000-5-||

Riff 4
|-----------------|-----------------|-----------------|-----------------|
|-----------------|-----------------|-----------------|-----------------|
|---7-------------|-8-7-------------|---7-------------|-6---------------|
|-6---0-0-0-0-5-6-|-----0-0-0-0-0-5-|-6---0-0-0-0-5-6-|-------------0-5-|

|-----------------|-----------------|-----------------|-----------------|
|-----------------|-8---------------|-----------------|-----------------|
|---7---------7---|---7-------------|---7-------------|-6---------------|
|-6---0-0-0-0---6-|-----0-0-0-0-0-5-|-6---0-0-0-0-5-6-|-------------0-5-|

|-----------------|-----------------|-----------------|-----------------|
|-----------------|-----------------|-----------------|-----------------|
|-----------------|-8-7-------------|---7-------------|-6---------------|
|-0---0-0-0-0-5-6-|-----0-0-0-0-0-5-|-6---0-0-0-0-5-6-|-------------0-5-|

|-----------------|-----------------|-----------------|-----------------|
|-----------------|-----------------|-----------------|-----------------|
|---7-------------|-8-7-------------|---7-------------|-6---------------|
|-6---0-0-0-0-5-6-|-----0-0-0-0-0-5-|-6---0-0-0-0-5-6-|-------------0-1-|

|-----------------|-----------------|-----------------|-----------------|
|-----------------|-----------------|-----------------|-----------------|
|---------------2-|-3-------------3-|-----------------|-----------------|
|-2---2-2-2-0-2---|---2-2-2-2-0-2---|-2-2-3-2-2-3-2---|-1---1-1-1-1-0-5-|

|-----------------|-----------------|-----------------|-----------------|
|-----------------|-----------------|-----------------|-----------------|
|---7-------------|-8-7-------------|---7-------------|-6-6---6-6-------|
|-6---0-0-0-0-5-6-|-----0-0-0-0-0-5-|-6---0-0-0-0-0-0-|-------------0-5-|

|-----------------|-----------------|-----------------|-----------------|
|-----------------|-8---------------|-----------------|-----------------|
|---7---------7---|---7-------------|---7-------------|-6---------------|
|-6---0-0-0-0---6-|-----0-0-0-0-0-5-|-6---0-0-0-0-5-6-|-------------5-6-|

|-----------------|-----------------|-----------------|-----------------|
|-----------------|-----------------|-----------------|-----------------|
|-----------------|-8-7-------------|---7-------------|-6---------------|
|-0---0-0-0-0-5-6-|-----0-0-0-0-5-5-|-6---0-0-0-0-5-6-|-------------0-5-|

|-----------------|-----------------|-----------------|-----------------|
|-----------------|-----------------|-----------------|-----------------|
|---7-------------|-8-7-------------|---7-------------|-6---------------|
|-6---0-0-0-0-5-6-|-----0-0-0-0-0-5-|-6---0-0-0-0-5-6-|-------------0-1-|

|-----------------|-----------------|-----------------|-----------------||
|-----------------|-----------------|-----------------|-----------------||
|---------------2-|-3-------------3-|-----------------|-----------------||
|-2---2-2-2-0-2---|---2-2-2-2-0-2---|-2-2-3-2-2-3-2---|-1---------------||

Pre-Solo
|-----------------|-----------|-----------------|-------------|
|-----------------|-----------|-----------------|-------------|
|-7-------5-----3-|-----2-----|---------5-----3-|-----2-------|
|-----------------|-------3-2-|-0---------------|---------3-2-|

|-----------------|-----------|-----------------|-------------||3x this row
|-----------------|-----------|-----------------|-------------||
|---------5-----3-|-----2-----|---------5-----3-|-----2-------||
|-0---------------|-------3-2-|-0---------------|---------3-2-||

Solo
|-----------------|-----------------|--|--|-----|-----------------|---|---------|
|-----------------|-----------------|-7x--|-----|-----------------|-%-|---------|
|-----------------|-------------2-3-|--|--|-R---|-------------R---|-%-|-----R---|
|-0-3-0-2-0-3-0-2-|-0-3-0-2-0-3-----|--|--|-----|-3-333-0-2-2-----|---|-1-1-----|

|-----------------|-----------------|-----------------|-----------------|2x this row
|-----------------|-----------------|-----------------|-----------------|
|---7---7---7---7-|---5---5---5---5-|---8---8---8---8-|---7---7-----5h7-|
|-0---0---0---0---|-0---0---0---0---|-0---0---0---0---|-0---0---0-0-----|

|-----------------|
|-----------------|
|-----------------|
|-0-0-0-0-0-0-0-0-|

|-----------------|-----------------|-----------------|-----------------|
|-----------------|-----------------|-----------------|-----------------|
|-7---------------|-5-------3-------|-----------------|-----R-------R---|
|-0-----------5-5-|-----3-3-----3-3-|-2---------------|-333-----333-----|

|-----------------|-----------------|-----------------|-----------|
|-----------------|-----------------|-----------------|-----------|
|-7---------------|-5-------3-------|-----------------|-----------|
|-0-----------5-5-|-----3-3-----3-3-|-2---------------|-3-333-0-2-|

|-----------------|-----------------|-----------------|-----------------|
|-----------------|-----------------|-----------------|---5---5---------|
|---7---7---7-7---|---7---7---7---7-|---5---5---5---5-|-3---3-----5---5-|
|-0---0---0-----0-|-5---5---5---5---|-3---3---3---3---|---------3---3---|

|-----------------|-----------------|-----------------|-----------------||
|-----------------|-----------------|-----------------|-----------------||
|---7---7---7---7-|---7---7---7---7-|-----------------|-3-3-3-3---------||
|-0---0---0---6---|-5---5---5---5---|-3-3-3-3-3-3-3-3-|---------3-3-3-3-||

Play Riff 1 - 2x
Play Riff 2a
Play Riff 1
Play Riff 1a

Riff 3c/Outro
|-----------------|-----------------|-----------------|-----------------|
|-----------------|-----------------|-----------------|-----------------|
|-7---------------|-5-------3-------|-----------------|-----R-------R---|
|-0-----------5-5-|-----3-3-----3-3-|-2---------------|-333-----333-----|

|-----------------|-----------------|-----------------|-----------|
|-----------------|---------|  .  |-|-----------------|-----------|
|-7---------------|-5-------3--3----|-----------------|-----------|
|-0-----------5-5-|-----3-3-------3-|-2---------------|-3-333-0-2-|

|-----------------|-----------------|-----------------|-----------------|
|-----------------|-----------------|-----------------|-----------------|
|-7---------------|-5-------3-------|-----------------|-----R-------R---|
|-0-----------5-5-|-----3-3-----3-3-|-2---------------|-333-----333-----|

|-----------------|-----------------|-----------------|-------------|-----------------|
|-----------------|---------|  .  |-|-----------------|-------------|-----------------|
|-7---------------|-5-------3--3----|-----------------|-------------|-------------R---|
|-0-----------5-5-|-----3-3-------3-|-2---------------|-3-333-0-2-2-|-3-333-0-2-2-----|

|---------|-----------------------------||
|---------|-----------------------------||
|-----R---|---7---7---7-8-7---7---7-----||
|-1-1-----|-0---0---0-------0---0---6-0-||




-----------------------------------------------------------------------------------------------------------




Metallica-...And Justice For All

Rest for a bit

Intro
|-------------|-------------|-------------|-------------|-------------|-------------|
|-------------|-------------|-------------|-------------|-------------|-------------|
|-R-----------|-------------|-------------|-2-2-2---2---|-1-1-1-1-1---|-1-----------|
|-------------|-------------|-------------|-------0---0-|-----------0-|-------------|

|-------------|-------------|-------------|-------------|-------------|-------------|
|-------------|-------------|-------------|-------------|-------------|-------------|
|-R-----------|-------------|-------------|-2-2-2---2---|-1-1-1-1-1---|-1-------1///|
|-------------|-------------|-------------|-------0---0-|-----------0-|-------------|

|-------------|-------------|-------------|-------------|-------------|-------------|
|-------------|-------------|-------------|-------------|-------------|-------------|
|-7-7-7---7---|-5-5-55--5---|-3-3-3---3---|-2-2-22502-2-|-1-1-11--1-1-|-1--------///|
|-----------00|-------2---0-|-----------0-|-------------|-------0-----|-------------|

|-----------------|-----------------|-------------|-----------------|-----------------|
|-----------------|-----------------|-------------|-----------------|-------0---------|
|---R---------R---|-------R---------|-----R-------|-1-0-----0-------|-------------R---|
|-6-------6-5-----|-6-5-4-------6-5-|-4-3---------|-----3-1---3-1-0-|-3-1-0---1-0-----|

|-----------------|-----------------|-----------------||
|-3---2---0-------|-2-0-----0-------|-----------------||
|-------------3---|-----3-2---------|-----------------||
|-----------------|-----------3-2-1-|-0--- let ring --||

Riff 1
|-----------------|-----------------|---------|-----------------||4x
|-----------------|-----------------|---------|-----------------||
|-----------------|---7---7-5-------|---------|---7---7-5-------||
|-6-6-5---6-6-5---|-0-----------7---|-6-6-5---|-0-----------7---||
Mini Solo
|-----------------|-----------------|---------|-----------------|
|-----------------|-----------------|---------|-----------------|
|-----------------|---7-----7---7---|---------|-----------------|
|-6-6-5---6-6-5---|-0-0---0-------00|-2-3-0---|-0-5---0-5---5-00|

|-----------------|-----------------|---------|-----------------||
|-----------------|-----------------|---------|-----------------||
|-----0-003-2-0---|---7-----7---7---|---------|-----------------||
|-2-3-------------|-0-----0-------00|-2-3-0---|-0-5---0-5---5-00||

Riff 1a
|-----------------|-----------------|---------|-----------------|
|-----------------|-----------------|---------|-----------------|
|-3-332-----------|---7---7-5-------|---------|---7---7-5-------|
|-------001-1-0---|-0-----------7---|-6-6-5---|-0-----------7---|

|-----------------|-----------------|---------|-----------------|
|-----------------|-----------------|---------|-----------------|
|-----------------|---7---7-5-------|---------|---7---7-5-------|
|-6-6-5---6-6-5---|-0-----------7---|-6-6-5---|-0-----------7---|

|-----------------|-----------------|---------|-----------------|
|-----------------|-----------------|---------|-----------------|
|-----------------|-----------------|---------|-----------------|
|-6-6-5---3-3-2---|-0-0---0-0---0---|-0-0-1---|-1-0---0-0---0---|

|-----------------|-----------------|---------|-----------------|-----------------||
|-----------------|-----------------|---------|-----------------|-----------------||
|-----------------|-----------------|---------|-----------------|-----------------||
|-6-6-5---6-6-5---|-5-0---0-0---0---|-0-0-1---|-1-0---0-0---0---|-6-6-5---5-6-6---||

Riff 2
|-----------------|---------|-----------------|-----------------|
|-----------------|---------|-----------------|-----------------|
|---7-----7---7---|---------|---7-----7---7---|-----------------|
|-0---0-0-0---0---|-0-0-1---|-0-0-0-0-0---0---|-6-6-5---6-6-5---|

|-----------------|---------|-----------------|-----------------|
|-----------------|---------|-----------------|-----------------|
|---7-----7---7---|---------|---7-----7---7---|-----------------|
|-0---0-0-0---0---|-0-0-1---|-0-0-0-0-0---0---|-6-6-5---5-6-6---|

|-----------------|---------|-----------------|-----------------|
|-----------------|---------|-----------------|-----------------|
|---7-----7---7---|---------|---7-----7---7---|-----------------|
|-0---0-0-0---0---|-0-0-1---|-0-0-0-0-0---0---|-6-6-5---6-6-5---|

|-----------------|---------|-----------------|-----------------|-----------------||
|-----------------|---------|-----------------|-----------------|-----------------||
|---7-----7---7---|---------|---7-----7---7---|-----------------|---7-7-----5-5---||
|-0---0-0-0---0---|-0-0-1---|-0-0-0-0-0---0---|-6-6-5---6-6-5---|-0-----0-0-----3-||

Riff 3
|-----------------|-----------------|-----------------|-----------------|
|-----------------|-----------------|-----------------|-----------------|
|-----------------|-----------------|-----------------|-----------------|
|-2---2-2-2-2-2-2-|-3-2-0/3----/3---|-2---2-2-2-2-2-2-|-3-2-0/3----/3---|

|-----------------|-----------------|-----------------|-0---------------|
|-----------------|-----------------|-----------------|-----0-----------|
|-----------------|-----------------|-----------------|---------0----023|
|-2---2-2-2-2-2-2-|-3-2-0/3----/5---|-2---2-2-2-2-2-2-|-----------------|

|-----------------|-----------------|-----------------|-----------------|
|-----------------|-----------------|-----------------|-----------------|
|-----------------|-----------------|-----------------|-----------------|
|-2---2-2-2-2-2-2-|-3-2-0/3----/3---|-2---2-2-2-2-2-2-|-3-2-0/3----/3---|

|-----------------|-----------------|-----------------|-----------------|
|-----------------|-----------------|-----------------|-----------------|
|-----------------|-----------------|-----------------|---R-----------3-|
|-2---2-2-2-2-2-2-|-3-2-0/3----/5---|-2---2-2-2-2-2-2-|-3---------------|

|-----------------||
|---R-------------||
|-3---------------||
|------------/8---||

Riff 4
|-----------------|-----------------|-----------------|-----------------|
|-----------------|-----0-----------|-----------------|-----------------|
|-----------------|-----------------|-0---0-0-0---0---|-2-----2-2-0-2---|
|-0---0-0-0-0-0-0-|-1-0---1-----1---|-----------3-----|-----------------|

|-----------------|-----------------|-----------------|-----------------|
|-----------------|-----------------|-----0-----------|-----------------|
|-3---3-2-0-------|-----------------|-----------------|-0-----0-0---0-0-|
|-----------3-1---|-0---0-0-0-0-0-0-|-1-0---1-----1---|-----------3-----|

|-----------------|-----------------|-----------------|-----------------|
|-----------------|-----------------|-----0-----------|-----------------|
|-2-0-2---3-2-----|-----------------|-----------------|-0-----0-0---0---|
|-------------1---|-0---0-0-0-0-0-0-|-1-0---1-----1---|-----------3-----|

|-----------------|-----------------|-----------------|-----------------||
|-----------------|-----------------|-----------------|-----------------||
|-2---2-2-2-3-2-0-|-------------5---|-3---3-3-3-------|-----------------||
|-----------------|-3---3-3-5-3-----|-----------0-5-3-|-1-----------1///||

Play Riff 1 - 2x

Riff 1b
|-----------------|-----------------|---------|-----------------|
|-----------------|-----------------|---------|-----------------|
|-----------------|-----------------|---------|-----------------|
|-6-6-5---3-3-2---|-0-0---0-0---0---|-0-0-1-1-|-1-0---0-0---0---|

|-----------------|-----------------|---------|-----------------|-----------------||
|-----------------|-----------------|---------|-----------------|-----------------||
|-----------------|-----------------|---------|-----------------|-----------------||
|-6-6-5---6-6-5-5-|-5-0---0-0---0---|-0-0-1---|-1-0---0-0---0---|-6-6-5---5-6-6---||

Play Riff 2
Play Riff 3
Play Riff 4
Play Riff 1 - 2x

Re-Intro
|-----------------|-----------------|-------------|-----------------|-----------------|
|-----------------|-----------------|-------------|-----------------|-------0---------|
|---R---------R---|-------R---------|-----R-------|-1-0-----0-------|-------------R---|
|-6-------6-5-----|-6-5-4-------6-5-|-4-3---------|-----3-1---3-1-0-|-3-1-0---1-0-----|

|-----------------|-----------------|-----------------|------------------||
|-3---2---0-------|-2-0-----0-------|-----------------|------------------||
|-------------3---|-----3-2---------|-----------------|-/7-6-5-3-2-0-----||
|-----------------|-----------3-2-1-|-0---------------|--------------3-2-||

Guitar Solo
|-----------------|-----------------|-----------------|-----------------|
|-----------------|-----------------|-----------------|-----------------|
|-----------------|-----------------|-----------------|-----------------|
|-0---0-0-0-0-0-0-|-1-0-0-1-----1---|-0---0-0-0-0-0-0-|-1-0-0-1-----1---|

|-----------------|-----------------|-----------------|-057-------------|
|-----------------|-----------------|-----------------|-----057---------|
|-----------------|-----------------|-----------------|---------057-023-|
|-0---0-0-0-0-0-0-|-1-0-0-1-----3---|-0---0-0-0-0-0-0-|-----------------|

|-----------------|-----------------|-----------------|-----------------|
|-----------------|-----------------|-----------------|-----------------|
|-----------------|-----------------|-----------------|-----------------|
|-0---0-0-0-0-0-0-|-1-0-0-1-----1---|-0---0-0-0-0-0-0-|-1-0-0-1-----1---|

|-----------------|-----------------|-----------------|-057-------------|---||
|-----------------|-----------------|-----------------|-----057---------|-%-||
|-----------------|-----------------|-----------------|---------057-023-|-%-||
|-0---0-0-0-0-0-0-|-1-0-0-1-----3---|-0---0-0-0-0-0-0-|-----------------|---||

More Solo
|-----------------|-----------------|---------|-----------------|---------|
|-----------------|-----------------|---------|-----------------|---------|
|-3-3-2---3-3-2---|-----------------|---------|-----------------|---------|
|-----------------|-0-2---0-2---2---|-0-2-3---|-0-2---0-2---2-0-|-0-0-3---|

|-----------------|---------|-----------------||2x
|-----------------|---------|-----------------||
|-----------------|---------|-----------------||
|-0-2---0-2---2---|-0-2-3---|-0-2---0-2---2--/||

Lead In
|-----------------|-----------------|---|-----------------|-----------------|
|-----------------|-----------------|-%-|-----------------|-----------------|
|-3-3-2---3-3-2---|---7-7-----5-5---|-%-|---5-5-----3-3---|---3-3-----2-2---|
|-----------------|-0-----0-0-----3-|---|-0-----0-0-----1-|-0-----0-0-----3-|

|-----------------||
|-----------------||
|---R-------------||
|-0---------------||

Play Riff 2

Bridge/Re-Re-Intro [hold last note for a few bars]
|-----------------|-----------------|-----------------|-------------|
|-----------------|-----------------|-----------------|-------------|
|-----------------|-----------------|-----4-----------|-------------|
|-5-5-3---5-5-3---|-3-3-2---3-3-2---|-2-2-2---2-2-2---|-1-1-1-1-1-0-|

|-------------|-------------|-------------|-------------|
|-------------|-------------|-------------|-------------|
|-7---7---7---|-5-5-5-0-5-0-|-3-3-3---3---|-2-2-2---2-0-|
|---0-------0-|-------------|-----------0-|-------0-----|

|-----------3-|-------------|-------------|-------------|
|-------------|-------------|-------------|-------------|
|-1-1-1-1-1---|-1-----1-1-1/|-7-7-7-------|-5-5-5-0-5\--|
|-------------|-------------|---------0-0-|-------------|

|-------------|-------------|-------------|-------------|
|-------------|-------------|-------------|-------------|
|-3-3-3---3---|-2-2-2---2---|-1-1-1---1---|-1-------1-1/|
|-----------3-|-------0---2-|-------0---0-|-------------|

|-------------|-------------|-------------|-------------|
|-------------|-------------|-------------|-------------|
|-7---7---7---|-5-5-5---5---|-3-3-3---3---|-2-2-2-0-2---|
|---0-------0-|-------0---0-|-----------3-|-----------00|

|-------------|-------------|--9----------|-------------|
|-------------|-------------|-------------|-------------|
|-1-1-1-1-1---|-1-----1-1-1/|-7------7----|-5------5----|
|-----------0-|-------------|------4--4-0-|------2--0-0-|

|-------------|-------------|-------------|-------------|
|-------------|-------------|-------------|-------------|
|-3-----3--3--|-2-----2-52-0|-1-----1-10-0|-1-----1-1---|
|---------0--0|-------------|-------------|----------0-0|

|-------------|-------------|-------------|-------------|
|-------------|-------------|-------------|-------------|
|-7---7---7---|-5---5---5---|-3-003---3---|-2-002---2---|
|---44--4---0-|---22--2---0-|-------0---0-|-------00--0-|

|-------------|-------------|-------------|-------------|
|-------------|-------------|-------------|-------------|
|-1-111---1---|-1---1---1---|-7---7---7---|-5---5-5-5---|
|-------0---0-|---00--0---0-|---44--44--00|---33------0-|

|-------------|-------------|-------------|-------------|-------------|-----------------||
|-------------|-------------|-------------|-------------|-------------|-----------------||
|-3---3-3-3---|-2-222-2-2-0-|-1-111-1-1---|-1-111-1-1---|-1-111-1-1---|-7---------------||
|---00------00|-------------|-------------|-------------|-------------|-0---------------||

Play Riff 1 - 2x

Lead In
|-----------------||
|-----------------||
|-----------------||
|-6-6-5---3-3-2-0-||

Play Riff 2
Play Riff 3
Play Riff 4

Bridge/Final Chorus
|-----------------|-----------------|---------|-----------------|
|-----------------|-----------------|---------|-----------------|
|-----------------|---7-----7---7---|---------|-0-0---0-0-000---|
|-6-6-5---6-6-5---|-0-0---0-0-000-0-|-2-3-0---|---------------00|

|-----------------|-----------------|---------|-----------------|
|-----------------|-----------------|---------|-----------------|
|-----0-003-2-0-0-|---7----7-77777--|---------|-0-000-0-0-0-0-0-|
|-3-33------------|-0-0--0-0------0-|-2-3-0-0-|-----------------|

|-----------------|-----------------|---------|-----------------|
|-----------------|-----------------|---------|-----------------|
|-----0-003-3-2---|---7------7--7---|---------|-0---0-0-0---0---|
|-0-3-------------|-0-0------0000-0-|-0-0-0---|-----------3-----|

|-----------------|-----------------|-----------------|-----------------|
|-----------------|-----------------|-----------------|-----------------|
|-2---2-0---2-3-0-|-------------5---|-3---3-3-3-5-3-0-|-----------------|
|---------3-------|-3---3-3-5-3-----|-----------------|-1------------///|

|-----------------||
|-----------------||
|-----------------||
|-6-6-5---6-6-5---||

Outro
|-----------------|---------|-----------------|-----------------|
|-----------------|---------|-----------------|-----------------|
|---7-----7---7-7-|-7-------|-0---0-000-0-0---|-----0---3-2-0---|
|-0-0---0-0-000---|-0-0-3-0-|---------------0-|-2-3---00------0-|

|-----------------|---------|-----------------|-----------------|
|-----------------|---------|-----------------|-----------------|
|-7---7---7---7---|---------|-----------------|-----0---3-2-0---|
|-0-0-0-0-0-----0-|-2-3-0---|-0-5---0-5---5-00|-2-3---0-------0-|

|-----------------|---------|-----------------|-----------------|
|-----------------|---------|-----7-----7-----|-7---------------|
|---7-----7-----7-|-7-------|-5-5-5-5-5-5-5-5-|-5-5-7-5-----9---|
|-0-0---0-0-000---|---0-0-0-|-----------------|---------7-----7-|

|-----------------|---------|-----------------|
|-----------------|---------|-----------------|
|---9-----9---5\\\|-0---0-0-|-0-0-0-----------|
|-7---7-7---7-----|---------|-------0-3-3-2---|

|-----------------|---------|-----------------|-----------------|
|-----------------|---------|-----7-----7-----|-7---------------|
|-----7-----7-----|-7-7-----|-5-5-5-555-5-5-5-|-5-5-7-5---------|
|-0-----0-0---0-0-|-----0-0-|-----------------|---------7---7-7-|

|-----------------|---------|-----------------|-----------------|---------||
|-----------------|---------|-----------------|-----------------|---------||
|-----------------|---------|-----------------|-R---------------|---------||
|-7-7-7-0-6-6-5---|-5---5-5-|-5-5-5-0-3-3-2---|-----------------|-3-2-0---||




-----------------------------------------------------------------------------------------------------------




Metallica-Eye of the Beholder

Intro [fade in]
|-----------------|-----|-----------------|-----------------|--|--|
|-----------------|-14x-|-----------------|-----------------|-4x--|
|---------------7-|-----|-----------------|-----------------|--|--|
|-000000000-0-00--|-----|-000000003-3-333-|-222222222-2-222-|--|--|

|-----------------|----|-----------------|----|-----------------||
|-----------------|-4x-|-----------------|-7x-|---------898-----||
|-777-------7777--|----|-----------------|----|-------------787-||
|-----0-0-0-----0-|----|-000-0-0-777-666-|----|-000-0-0---------||

Riff 1
|-----------------|----|-----------------|-----------------||
|-----------------|-3x-|---------898-----|-----------------||
|-----------------|----|-------------787-|-----------------||
|-000-0-0-777-666-|----|-000-0-0---------|-676-232-0-------||

Lead In
|---------||
|---------||
|---R-----||
|-0-------||

Riff 2
|-----------------|-----------------|--|--|-----------------|-----------------|
|-----------------|-----------------|-4x--|-----------------|-----------------|
|-----------------|-----------------|--|--|-----------------|-----------------|
|-000000003-3-333-|-222222222-2-222-|--|--|-000000000-0-000-|-000000000-0-000-|

|-----------------|-----------------|--|--|-----------------|-----------------||
|-----------------|-----------------|-3x--|-----------------|-----------------||
|-----------------|-----------------|--|--|-----------------|-----------------||
|-000000003-3-333-|-222222222-2-222-|--|--|-000000003-3-333-|-2-----------3-2-||

Riff 3
|-------------|-------------||5x
|-------------|-------------||
|---7---7---8-|---5---5---6-||
|-0---0---0---|-0---0-------||

Lead In
|-------------|-------------|-------------|-------------|-------------|-------------||
|-------------|-------------|-------------|-------------|-------------|-------------||
|-7---------7-|-R-----------|-------------|-R-----------|-------------|-R-----------||
|-0---0-0-0-0-|-------------|-3---0-0-0-0-|-------------|-3---3-3-3-3-|-------------||

Riff 4
|---------|-----------------|-----------------|
|---------|-----------------|-----------------|
|---------|-----------------|-----------------|
|-555-333-|-555-333-222-333-|-2---0-3-2---3---|

|------------------|---|-----------------|2x this row
|------------------|-%-|-----------------|
|------------------|-%-|-----------------|
|-2----0-3-2---3---|---|-2-2-2-2-3-3-3-3-|

|------------------|---|-----------------|-----------------||
|------------------|-%-|-----------------|-----------------||
|------------------|-%-|-----------------|---------------R-||
|-2----0-3-2---3---|---|-2-------5-----0-|-0-----0-0---0---||

Play Riff 1

Riff 2a
|-----------------|-----------------|--|--|-----------------|-----------------|
|-----------------|-----------------|-4x--|-----------------|-----------------|
|-----------------|-----------------|--|--|-----------------|-----------------|
|-000000003-3-333-|-222222222-2-222-|--|--|-000000000-0-000-|-000000000-0-000-|

|-----------------|-----------------|-----------------|-----------------|
|-----------------|-----------------|-----------------|---------------4-|
|-----------------|-----------------|-----------------|-----------4-----|
|-000000003-3-333-|-222222222-2-222-|-000000003-3-333-|-222222222---2---|

|-----------------|-----------------|-----------------|-----------------||
|-----------------|-----------------|-----------------|-----------------||
|-----------------|-----------------|-----------------|-----------------||
|-000000003-3-333-|-222222222-2-222-|-000000003-3-333-|-2-----------3-2-||

Play Riff 3 - 5x

Riff 5
|-------------|-------------|-------------|-------------||
|-------------|-------------|-------------|-------------||
|-7---------7-|-R-----------|-------------|-R-----------||
|-0---0-0-0-0-|-------------|-3---0-0-0-0-|-------------||

Play Riff 4
Play Riff 1

Middle Section
|-----------------|-----------------|--|--|-----------------|-------------0---|--|--|
|-----------------|-----------------|-2x--|-----------------|-----------0---0-|-2x--|
|-7-------333-1-2-|---------2-2-1---|--|--|-7-------333-1-2-|---------2-------|--|--|
|---0-0-0---------|-0-0-0-0---------|--|--|---0-0-0---------|-0-0-0-0---------|--|--|

|-----------------|---------------------|-----------------|-----------------|
|---------555-3-4-|-------------5---5---|---------555-3-4-|-------------5---|
|-2-2-2-2---------|-2-2-2-2-2-5---6---5-|-2-2-2-2---------|-2-2-2-2-2-5---5-|
|-----------------|---------------------|-----------------|-----------------|

|-----------------|-----------------|-----------------|-----------------|
|-----------------|-------------3---|-----------------|-------------3---|
|-5-5-5-5---------|-5-5-5-5-0-3---3-|-5-5-5-5---------|-5-5-5-5-0-3---3-|
|---------666-4-5-|-----------------|---------666-4-5-|-----------------|

|-----------------|---------------------|-----------------|-----------------|
|-----------------|-------------3---3---|-----------------|-------------3---|
|-0-0-0-0-888-6-7-|-0-0-0-0-0-3---4---3-|-0-0-0-0-888-6-7-|-0-0-0-0-0-3---3-|
|-----------------|---------------------|-----------------|-----------------|

|-----------------|-----------------|-----------------|---------------------|
|-----------------|-------------3---|-----------------|-------------3---3---|
|-5-5-5-5---------|-5-5-5-5-0-3---3-|-5-5-5-5---------|-5-5-5-5-0-3---3---3-|
|---------666-4-5-|-----------------|---------666-4-5-|---------------------|

|-----------------|-----------------|-----------------|-----------------|
|-----------------|-----------------|-----------------|-----------------|
|-----------------|-----------------|-555-333-222-333-|-5-5-3-3-2-2-----|
|-555-666-444-555-|-777-555-444-555-|-----------------|-------------3-3-|

|------------------|----|-----------------|-----------------|----|---------7-6-4-2-||
|------------------|-3x-|-----------------|-----------------|-3x-|-----------------||
|------------------|----|-----------------|-----------------|----|-----------------||
|-2----0-3-2---3---|----|-0---0-3-2---3---|-2---0-3-2---3---|----|-2-2-2-2---------||

Riff 2b
|-----------------|-----------------|-----------------|-----------------|
|-----------------|-----------------|-----------------|---------------4-|
|-----------------|-----------------|-----------------|-----------4-----|
|-000000003-3-333-|-222222222-2-222-|-000000003-3-333-|-222222222---2---|

|-----------------|-----------------|-----------------|-----------------||
|-----------------|-----------------|-----------------|-----------------||
|-----------------|-----------------|-----------------|-----------------||
|-000000003-3-333-|-222222222-2-222-|-000000003-3-333-|-2-----------3-2-||

Play Riff 3 - 4x
Play Riff 5
Play Riff 4

Outro
|-------------|-------------|--|--|-------------|-------------|
|-------------|-------------|-4x--|-------------|-------------|
|---7---7---8-|---5---5---6-|--|--|-7---------7-|-R-----------|
|-0---0---0---|-0---0-------|--|--|-0---0-0-0-0-|-------------|

|-------------|-------------|--|--|-------------|-------------|
|-------------|-------------|-2x--|-------------|-------------|
|---7---7---8-|---5---5---6-|--|--|-7---------7-|-R-----------|
|-0---0---0---|-0---0-------|--|--|-0---0-0-0-0-|-------------|

|-------------|-------------|-------------|-------------|-----||
|---R---------|-------------|-------------|-------------|-----||
|-7-----------|-------------|-------------|-------------|-----||
|-0-----------|-------------|-3---0-0-0-0-|-0-0-0-0-0-0-|-0---||




-----------------------------------------------------------------------------------------------------------




Metallica-One

Rest 16 bars

Intro
|-----------------|-----4-------|-------------|-----4-------|-------------|
|-----R---R---R---|-------------|-------------|-------------|-------------|
|---2---2---2---2-|-2-----2-3-2-|-------------|-2-----2-3-2-|---------5---|
|-----------------|-------------|-3-----3-0-2-|-------------|-3---0-2-----|

|-----4-------|-------------|-------------|-------------|-------------||
|-------------|---------75--|-------------|-----------4-|-----5-----7-||
|-2-----2-3-2-|-0-----0---7-|-------------|---7---------|-------------||
|-------------|-------------|-3-----3-023-|-0-----0-2---|-3-----3-5---||

Riff 1
|-------7-----|-------------|-------------|-------------|
|-----7---7---|-----5-------|-----3---3---|-----2---2---|
|-5-----------|-------------|-------------|---2---2---2/|
|-------------|-3-----3-5-3-|-1-----1---1-|-0-----------|

|-------7-----|-------------|-------------|-------------|
|-----7---7---|-----5-------|-----3---3---|-------------|
|-5-----------|-------------|-------------|--------23---|
|-------------|-3-----3-5-3-|-1-----1---1-|-0-----------|

|-----4-------|-------------|-----4-------|-------------| 
|-------------|-------------|-------------|-------------| 
|-2-----2-3-2-|-------------|-2-----2-3-2-|---------5---| ---|
|-------------|-3-----3-0-2-|-------------|-3---0-2-----|    |
                                                             | 2x this section
|-----4-------|-------------|-------------|---------|        |
|-------------|---------75--|-------------|---------| -------|
|-2-----2-3-2-|-0-----0---7-|-------------|---2---2-|
|-------------|-------------|-3-----3-023-|-0---2---|

|-------------|-------------|-------------|-------5---6-||2x whole riff
|-------------|-------4-----|-------------|-------------||
|-------0-2-0-|---------2---|-0-----2-4-2-|-0-2-3---4---||
|-3-----------|-3---2-------|-------------|-------------||

Riff 1a
|-------7-----|-------------|-------------|-------------|4x this row
|-----7---7---|-----5-------|-----3---3---|-----2---2---|
|-5-----------|-------------|-------------|---2---2---2-|
|-------------|-3-----3-5-3-|-1-----1---1-|-0-----------|

|-------------|-------------|-------------|---2---4-----|
|-------------|-------------|-------------|-------------|
|-------0-2-0-|---------2---|-0-----2-4-2-|-0---2---4-4-|
|-3-----------|-3---2-------|-------------|-------------|

|-------------|-------------|-------------|---2---4-----|-------------|-------------|
|-------------|-------------|-------------|-------------|-------------|---------2---|
|-------0-2-0-|---------2---|-0-----2-4-2-|-0---2---4-4-|-------0-2-0-|-3---2-------|
|-3-----------|-3---2-------|-------------|-------------|-3-----------|-------------|

|-------------|-------------|-------------|-------------|4x this row
|-------------|-------------|-------------|-------------|
|-3---3-2-3-5-|-------5-----|-2---2---2---|-3---3---3---|
|-------------|-3-3-3---3-2-|-------2---2-|-------3---3-|

|-------2-----|-------------|-------------|---5---------|2x this row
|-----2---2---|-------------|-------------|-------------|
|-----------0-|-------------|-2---2---2---|-3---3---3---|
|-3-3---------|-2-2-2-3-2---|-------2---2-|-------3---3-|

|-----------------|-----------------||
|-----------------|-----------------||
|-----------------|-----------------||
|-0---------------|(0)--------------||

Riff 2
|-----------------|-----------------|-----------------|-----------------|
|-----------------|-----------------|-----------------|-----------------|
|-|.|-|.|-----R---|-|.|-|.|-----R---|-|.|-|.|-----R---|-|.|-|.|-----R---|
|-000-000-0-------|-000-000-0-------|-000-000-0-------|-000-000-0-------|

|-----------------|-----------------|-----------------|-----------------|
|-----------------|-----------------|-----------------|-----------------|
|-|.|-|.|---------|-|.|-|.|-----R---|-|.|-|.|---------|-|.|-|.|---------|
|-000-000-0-------|-000-000-0-------|-000-000-0-------|-000-000-0---1---|

|-----------------|-----------------|4x this row
|-----------------|-----------------|
|-|.|-|.|---------|-|.|-|.|---------|
|-000-000-0-------|-000-000-0---1---|

|-----------------|----|-----------------|2x this row
|-------------R---|-3x-|-----------------|
|-|.|-|.|-7-------|----|-|.|-|.|---------|
|-000-000-0-------|----|-000-000-0---1---|

|-----------------|-----------------|-----------------|-----------------|
|-----------------|-----------------|-----------------|-----------------|
|-|.|-|.|-7-------|-|.|-|.|-7---8---|-|.|-|.|-5-------|-|.|-|.|-5---8---|
|-000-000---------|-000-000---------|-000-000---------|-000-000---------|

|-----------------|-----------------|-----------------|-----------------|
|-----------------|-----------------|-----------------|-----------------|
|-|.|-|.|-7-------|-|.|-|.|-7---8---|-|.|-|.|-5-------|-|.|-|.|-2-------|
|-000-000---------|-000-000---------|-000-000---------|-000-000-----1---|

|-----------------|----|-----------------||2x this row
|-------------R---|-3x-|-----------------||
|-|.|-|.|-7-------|----|-|.|-|.|---------||
|-000-000-0-------|----|-000-000-0---1---||

Riff 2a
|-----------------|-----------------|-----------------|-----------------|2x this row
|-----------------|-----------------|-----------------|-----------------|
|-|.|-|.|-2---|.|-|-|.|-2---|.|-3---|-|.|-|.|-2---|.|-|-|.|-2---|.|-3---|
|-000-000-----000-|-000-----000-----|-000-000-----000-|-000-----000-----|

|-----------------|-----------------|-----------------|-----------------|
|-|.|-|.|---R-|.|-|-|.|---R-|.|---R-|-|.|-|.|---R-|.|-|-|.|---R-|.|-|.|-|
|-777-777-7---777-|-777-7---777-7---|-777-777-7---777-|-777-7---777-777-|
|-000-000-0---000-|-000-0---000-0---|-000-000-0---000-|-000-0---000-000-|

|-----------------|-----------------|-----------------|-----------------|2x this row
|-----------------|-----------------|-----------------|-----------------|
|-|.|-|.|-2---|.|-|-|.|-2---|.|-3---|-|.|-|.|-2---|.|-|-|.|-2---|.|-3---|
|-000-000-----000-|-000-----000-----|-000-000-----000-|-000-----000-----|

|-----------------|-----------------|-----------------|-----------------|
|-|.|-|.|---R-|.|-|-|.|---R-|.|---R-|-|.|-|.|---R-|.|-|-|.|---R-|.|-|.|-|
|-777-777-7---777-|-777-7---777-7---|-777-777-7---777-|-777-7---777-777-|
|-000-000-0---000-|-000-0---000-0---|-000-000-0---000-|-000-0---000-000-|

|-----------------|-----------------|-----------------|-----------------|2x this row
|-----------------|-----------------|-----------------|-----------------|
|-|.|-|.|-2---|.|-|-|.|-2---|.|-3---|-|.|-|.|-2---|.|-|-|.|-2---|.|-3---|
|-000-000-----000-|-000-----000-----|-000-000-----000-|-000-----000-----|

|-----------------|-----------------||
|-|.|-|.|---R-|.|-|-|.|---R-|.|---R-||
|-777-777-7---777-|-777-7---777-7---||
|-000-000-0---000-|-000-0---000-0---||

Riff 2b
|-----------------|-----------------|-----------------|-----------------|2x this row
|-----------------|-----------------|-----------------|-----------------|
|-|.|-|.|-7---7---|-|.|-|.|-7---7---|-|.|-|.|-7-------|-|.|-|.|---------|
|-000-000-0---0---|-000-000-0---0---|-000-000-0---1---|-333-333-3---3---|

|-----------------|-----------------|-----------------|-----------------|2x this row
|-----------------|-----------------|-----------------|-----------------|
|-|.|-|.|-5---5---|-|.|-|.|-5---5---|-|.|-|.|-5---6---|-|.|-|.|---------|
|-333-333---------|-333-333---------|-333-333---------|-111-111-1---1---|

|-----------------|-----------------|-----------------|-----------------|2x this row
|-----------------|-----------------|-----------------|-----------------|
|-----------------|-----------------|-|.|-|.|---------|-|.|-|.|---------|
|-0-0-3---0-0-3---|-0-0-3---0-0-3---|-111-111-1---1---|-111-111-1---1---|

|-----------------|-----------------|
|-------------|.|-|-|.|-|.|-|.|-|.|-|
|-|.|-|.|---R-555-|-555-444-333-222-|
|-333-333-3-------|-----------------|

|-----------------|-----------------|-----------------|-----------------|2x this row
|-----------------|-----------------|-----------------|-----------------|
|-|.|-|.|-2---|.|-|-|.|-2---|.|-3---|-|.|-|.|-2---|.|-|-|.|-2---|.|-3---|
|-000-000-----000-|-000-----000-----|-000-000-----000-|-000-----000-----|

|-----------------|-----------------|-----------------|-----------------|
|-|.|-|.|---R-|.|-|-|.|-|.|-|.|-|.|-|-----------------|-----------------|
|-777-777-7---555-|-555-444-333-222-|-|.|-|.|-2---|.|-|-|.|-2---|.|-3---|
|-000-000-0-------|-----------------|-000-000-----000-|-000-----000-----|

|-----------------|-----------------|-----------------|-----------------||6x this row
|-----------------|-----------------|-----------------|-----------------||
|-|.|-|.|-2---|.|-|-|.|-2---|.|-3---|-|.|-|.|-2---|.|-|-|.|-2---|.|-3---||
|-000-000-----000-|-000-----000-----|-000-000-----000-|-000-----000-----||

Almost There
|-----------------|-----------------|-----------------|-----------------|
|-----------------|-----------------|-----------------|-----------------|
|-----------------|-----------------|-|.|-|.|-2---|.|-|-|.|-2---|.|-3---|
|-3-3-3---3-3-3---|-3-3-3---3-3-3---|-000-000-----000-|-000-----000-----|

|-----------------|-----------------|-----------------|-----------------|--|--|
|-----------------|-----------------|-----------------|-----------------|-3x--|
|-----------------|-----------------|-|.|-|.|-7---7---|-----------------|--|--|
|-3-3-3---3-3-3---|-3-3-3---3-3-3---|-000-000-0---0---|-1-1-1---1-1-1---|--|--|

|-----------------|-----------------|-----------------|
|-----------------|-----------------|-----------------|
|-|.|-|.|-7---7---|-----------------|-----------------|
|-000-000-0---0---|-3-3-3---3-3-3---|-3-3-3---3-3-3---|

|-----------------|-----------------|-----------------|---------||
|-----------------|-----------------|-|.|-|.|-----|.|-|-|.|---R-||
|-|.|-|.|-2---|.|-|-|.|-2---|.|-3---|-777-777-7---777-|-777-7---||
|-000-000-----000-|-000-----000-----|-000-000-0---000-|-000-0---||




-----------------------------------------------------------------------------------------------------------




Metallica-The Shortest Straw

Intro
|-----|-----------------|-----------------|-----------------|-----------------|
|-----|-----------------|-----------------|-----------------|-----------------|
|-----|---R-------------|---R-------------|---R-------------|---R-------1-----|
|-0-1-|-0-----------0-1-|-0---0-1-0-3---1-|-0-----------0-1-|-0---0-1-0-----1-|

|-----------------|-----------------|-----------------|---------------||
|-----------------|-----------------|-----------------|---------------||
|---R-------------|---R-------------|---R-------------|---R-----------||
|-0-----------0-1-|-0---0-1-0-3---1-|-0-----------0-1-|-0---0-0-1-0---||

Riff 1
|-----------------|-----------------|-----------------|-----------------|
|-----------------|-----------------|-----------------|-----------------|
|-----------------|---------------1-|-----------------|-----------1-----|
|-0-1-0---0-0-000-|-0-1-0---0-3-0---|-0-1-0---0-0-000-|-0-1-0---0---0-3-|

|-----------------|-----------------|-----------------|---------------------------||2x
|-----------------|-----------------|-----------------|---------------------------||
|-----------------|---------------1-|-----------------|-------------R---R---R---R-||
|-0-1-0---0-0-000-|-0-1-0---0-3-0---|-0-1-0---0-0-000-|-0-1-0---0-3---3---2---1---||

Lead In
|-----------------|---------|-----------------|-----------------|----||
|-----------------|---------|-----------------|-----------------|-3x-||
|-----------------|---------|---R-------------|-----------------|----||
|-0-1-0---0-0-000-|-0-1---1-|-0---------------|-----------------|----||

Riff 2
|-----------------|-----------------|-----------------|-----------------|
|-----------------|-----------------|-----------------|-----------------|
|---7-----------7-|-----------------|---7-----------7-|-----------------|
|-0-----0-5--6----|-0-0-00-00-01-01-|-0-----0-5--6----|-0-0-00-00-03-03-|

|-----------------|-----------------|-----------------|-----------------||
|-----------------|-----------------|-----------------|-----------------||
|---7-----------7-|-----------------|-------7---------|-----------------||
|-0-----0-5--6----|-0-0-00-00-05-05-|-0-5-----6--5--3-|-3-3-33-33-22-11-||

Riff 3
|-----------------|-----------------|-----------------|-----------------|2x this row
|-----------------|-----------------|-----------------|-----------------|
|---7-------------|---7-------------|---7-------------|---7-------------|
|-0---00000-01-01-|-0---000-0-03-03-|-0---00000-01-01-|-0---000-3--2--1-|

|-----------------|-----------------|-----------------|-----------------||2x this row
|-----------------|-----------------|-----------------|-----------------||
|-----------------|-----------------|-----------------|-----------------||
|-2-2-22-22-23-23-|-2-2-22-22-25-25-|-2-2-22-22-23-23-|-2-2-22005--4--3-||

Riff 2a
|-----------------|-----------------||2x
|-----------------|-----------------||
|---7-----------7-|-----------------||
|-0-----0-5--6----|-0-0-00-00-01-01-||

Riff 4
|-----------------|
|---------R-------|
|-2-2-2-2---------|
|-----------------|

|-----------------|-----------------|-----------------|-----------------||
|-----------------|---------23202320|-----------------|---------23202320||
|-7-----7---7-8---|-2-3-3-0---------|-0---0-0-0-7-8-0-|-2-3-3-0---------||
|-0---0-0-0-----0-|-----------------|-----------------|-----------------||

Play Riff 1 - 2x
Play Riff 2
Play Riff 3
Play Riff 2a - 2x
Play Riff 4
Play Riff 1 - 2x
Play Riff 2a - 2x

Riff 5
|-----------------|-----------------|-----------------|-----------------||2x
|-----------------|-----------------|-----------------|-----------------||
|-----------------|-----------------|-----------------|-----------------||
|-0-0-00-00-00-00-|-1-1-11-11-11-11-|-2-2-22-22-22-22-|-3-3-330-3--2--1-||

Quick rest

Solo
|-----------------|-----------------|-----------------|-----------------|2x this row
|-----------------|-----------------|-----------------|-----------------|
|-----------------|-----------------|-----------------|-----------------|
|-0-0-00-00-01-01-|-0-0-00-00-03-03-|-0-0-00-00-01-01-|-0-0-000-3--2--1-|

|-----------------|-----------------|-----------------|-----------------||2x this row
|-----------------|-----------------|-----------------|-----------------||
|---R-------------|-R---------------|-R---------------|---R-------------||
|-0---------01-01-|-----------03-03-|-----------01-01-|-0-------3--2--1-||

Riff 5a
|-----------------|-----------------|-----------------|-----------------||2x
|-----------------|-----------------|-----------------|-----------------||
|-----------------|-----------------|-----------------|-----------------||
|-2-2-22-22-22-22-|-3-3-33-33-33-33-|-4-4-44-44-44-44-|-5-5-550-5--4--3-||

Lead In
|-----------------||
|-----------------||
|-R-------R-------||
|-------1---------||

Riff 1a
|-----------------|-----------------|-----------------|-----------------|
|-----------------|-----------------|-----------------|-----------------|
|-----------------|---------------1-|---------7-------|-----------1-----|
|-0-1-0---0-0-000-|-0-1-0---0-3-0---|-0-1-0-----0-0---|-0-1-0---0---0-3-|

|-----------------|-----------------|-----------------|---------------------------||2x
|-----------------|-----------------|-----------------|---------------------------||
|---------7-------|---------------1-|-----------------|-------------R---R---R---R-||
|-0-1-0-----0-0---|-0-1-0---0-3-0---|-0-1-0---0-0-000-|-0-1-0---0-3---3---2---1---||

Play Riff 1

Another Lead In
|-------------||
|-------------||
|-----R-------||
|-0-----------||

Play Riff 3
Play Riff 2a - 2x

Riff 4a
|-----------------|
|---------R-------|
|-2-2-2-2---------|
|-----------------|

|-----------------|-----------------|-----------------|-----------------||
|-----------------|---------23202320|-----------------|---------23202320||
|-7-----7---7-8---|-2-3-3-0---------|-5---5-5-0-7-8---|-2-3-3-0---------||
|-0---0-0-0-----0-|-----------------|---------------0-|-----------------||

Play Riff 1

Lead in (again)
|-----------------|-----------------|-----------------|-----------------||
|-----------------|-----------------|-----------------|-----------------||
|-----------------|-----R-----R-----|-7---------------|-----------------||
|-0-1-0---0-0-000-|-0-1---1-0-------|---0-00-00-01-01-|-0-0-00-00-03-03-||

Play Riff 5 - 2x

Outro
|-----------------|-----------------||
|-----------------|-----------------||
|-----------------|---R-----7-7\----||
|-0-0-00-00-01-01-|-0-----000-0-----||




-----------------------------------------------------------------------------------------------------------




Metallica-Harvester of Sorrow

Intro   [] = 3rd repeat only
|---------|-----------------|
|---------|-----------------|
|----210--|------------210--|
|-320---32|-0-------320---32|

|-----------------|-----------------|----|-----------------|-----------------|--|--|
|-----------------|-----------------|-3x-|-----------------|-----------------|-2x--|
|-----------------|-----------------|----|-----------------|-----------------|--|--|
|-0---------------|(0)--------[12\]-|----|-0---------------|(0)---------12\--|--|--|

|-----------------|-----------------|--|--|-----------------|-----------------||
|-----------------|-----------------|-3x--|-----------------|-----------------||
|-----7-----------|-----7-----5-----|--|--|-----7-----------|-----7------210--||
|-0-0---0-0-0-1-1-|-0-0---0-03--1-1-|--|--|-0-0---0-0-0-1-1-|-0-0---0-320---32||

Riff 1
|-----------------|-----------------|--|--|-----------------|-----------------||
|-----------------|-----------------|-2x--|-----------------|-----------------||
|------------210--|------------210--|--|--|------------210--|------------111--||
|-0-000-00320---32|-1-111-11320---32|--|--|-0-000-00320---32|-1-111-11320---32||

Lead In
|-----------------|-----------------|----|-----------------|
|-----------------|-----------------|-5x-|-----------------|
|-----------------|-----------------|----|-----------------|
|-0---------------|(0)--------------|----|(0)------------01|

|-----------------|----|-----------------|-----------------|-----------------||
|-----------------|-3x-|-----------------|-----------------|-----------------||
|---1---7---7-7---|----|---5-----R-------|---1---7---7-7---|---5-----R-------||
|-2---0---0-----01|----|-2---0-3---3-3-01|-2---0---0-----01|-2---0-3---3-3-01||

Riff 2
|-----------------|----|-----------------|-----------------|-----------------|
|-----------------|-3x-|-----------------|-----------------|-----------------|
|-----R---R-------|----|-----R---R-------|-----R-------R---|-----R---R-------|
|-2-0---0---0-0-01|----|-2-3---3---3-3-01|-2-0---012-0---01|-2-0---0---0-0-01|

|-----------------|-----------------|-----------------|-----------------|
|-----------------|-----------------|-----------------|-----------------|
|-----R---R-------|-----R---R-------|-----------------|-----------------|
|-2-0---0---0-0-01|-2-3---3---3-3-01|-0---------------|(0)------------01|

|-----------------|-----------------|-----------------|-----------------||
|-----------------|-----------------|-----------------|-----------------||
|-----R-------R---|-----R---R-------|-----------------|-----------------||
|-2-0---012-0---01|-2-0---0---0-0-01|-0---------------|(0)--------------||

Play Riff 1

Lead In
|-----------------|-----------------|-----------------|----|-----------------||
|-----------------|-----------------|-----------------|-3x-|-----------------||
|-----------------|-----------------|---1---7---7-7---|----|---R-----R-------||
|-0---------------|(0)----------1-01|-2---0---0-----01|----|-2---0-3---3-3-01||

Play Riff 2
Play Riff 1

Solo
|-----------------|-----------------|-----------------|-----------------|
|-----------------|-----------------|-----------------|-----------------|
|-----------------|-----------------|-----------------|-----------------|
|-0---------------|-0---------------|-0---------------|(0)----------1-01|

|-----------------|-----------------|-----------------|-----------------|
|-----------------|-----------------|-----------------|-----------------|
|-----R-------R---|-----R---R-------|-----R-------R---|-----R---R-------|
|-2-0---012-0---01|-2-0---0---0-0-01|-2-0---012-0---01|-2-3---3---3-3-01|

|-----------------|-----------------|-----------------|-----------------|
|-----------------|-----------------|-----------------|-----------------|
|-----R-------R---|-----R---R-------|-----------------|-----------------|
|-2-0---012-0---01|-2-0---0---0-0-01|-0---------------|(0)--------------|

|-----------------|-----------------|-----------------|-----------------|
|-----------------|-----------------|-----------------|-----------------|
|-----------------|-----------------|-----------------|------------210--|
|(0)--------------|(0)------------01|-0-000-000-000-00|-0-000-00320---32|

|-----------------|-----------------|-----------------|-----------------|
|-----------------|-----------------|-----------------|-----------------|
|-----------------|------------210--|-----------------|-----------------|
|-0-000-000-000-00|-1-111-11320---32|-0-000-000-000-00|-1-111-111-111-11|

|-----------------|-----------------|-----------------|-----------------|
|-----------------|-----------------|-----------------|-----------------|
|-----------------|-----------------|-----------------|-----------------|
|-0-000-000-000-00|-0-000-0011-111--|-0-000-000-000-00|-0-000-0011-111--|

|-----------------|---------------------|-----------------||
|-----------------|---------------------|-----------------||
|-----------------|---------------------|-R---------------||
|-0---------------|(0)----------11-111--|---------11-111--||

Final Verse
|-----------------|-----------------|----|-----------------|
|-----------------|-----------------|-2x-|-----------------|
|-R-------R-------|-----R---R-------|----|-----R---R-------|
|-----0-0---0-0-01|-2-0---0---0-0-01|----|-2-3---3---3-3-01|

|-----------------|-----------------||
|-----------------|-----------------||
|-----------------|-----------------||
|-0---------------|(0)--------------||

Riff 1a/Outro
|-----------------|-----------------|--|--|-----------------|----|-----------------||
|-----------------|-----------------|-3x--|-----------------|-4x-|-----------------||
|------------210--|------------210--|--|--|------------210--|----|----------R------||
|-0-000-00320---32|-1-111-11320---32|--|--|-0-000-00320---32|----|-0-000-00--------||




-----------------------------------------------------------------------------------------------------------




Metallica-The Frayed Ends of Sanity

Intro
|-----------------|-----------------|-----------------|-----------------|
|-----------------|-----------------|-----------------|-----------------|
|-7---------------|-3---------------|-7---------------|-2---------------|
|-0---------------|-----------------|-0---------------|-----------------|

|-----------------|-----------------|-----------------|-----------------|2x this row
|-----------------|-----------------|-----------------|-----------------|
|-----1-----R-----|-1---------R-----|-----1-----R-----|-1---------R-----|
|-0-------0-------|---------0-------|-0-------0-------|---------0-------|

|-----------------|-----------------|-----------------|---------|
|-----------------|-----------------|-----------------|---------|
|-----1-----R-----|-1---------R-----|-----1-----R-----|-1-------|
|-0-------0-------|---------0-------|-0-------0-------|---------|

|-----------------|-----------------|-----------------|-----------------||
|-----------------|-----------------|-----------------|-----------R---R-||
|---R-------------|-----------------|-----------------|---------1---11-1||
|-0---------------|-----------------|-----------------|-----------------||

Riff 1
|-----------------|----|-----------------|
|-----------------|-3x-|-----------R---R-|
|-----1---1-------|----|-----1---1---11-1|
|-0000-0-0---03001|----|-0000-0-0--------|

|-----------------|---------------------|-----------------||
|-----------------|-----------R---R---R-|-----------------||
|-----1---1-------|-----1---1---11--11-1|-----1---1-------||
|-0000-0-0---03001|-0000-0-0------------|-0000-0-0---03001||

Verse
|-----------------|-----------------|-----------------|-----------------|
|---------8---8---|-7---7---6-6-----|-----------------|-----------------|
|-7---7---6-666-66|-5-555-554-4-----|-----1---1-------|-----1---1-------|
|-0-000-00--------|------------02323|-0000-0-0---03001|-0000-0-0---03001|

|-----------------|-----------------|-----------------|-----------------|
|---------8---8---|-7---7---6-6-----|-----------------|-----------------|
|-7---7---6-666-66|-5-555-554-4-----|-----1---1-------|-----------------|
|-0-000-00--------|------------02323|-0000-0-0---03001|-777-666-555-444-|

|-----------------|-----------------|-----------------|-----------------|
|-----------------|-----------------|-----------------|-----------------|
|-----1---1-------|-----------------|-----1---1-------|-----1---1-------|
|-0000-0-0---03001|-777-666-555-444-|-0000-0-0---03001|-0000-0-0---03001|

|-----------------|-----------------|-----------------|-----------------||
|-----------------|-----------------|-----------------|-----------------||
|-----------------|-----------------|-----------------|-----------------||
|-003-3-5-003-3-5-|-003-3-0-3-4-5-6-|-003-3-5-003-3-0-|-003-3-003-4-5-6-||

Chorus
|-----------------|---------|-----------------|---------|
|-----------------|---------|-----------------|---------|
|----7--7----4--4-|-5-6-7-8-|----7-75-2-22-32-|---------|
|-0-0--0-02-2--2-2|-3-4-5-6-|-0-0------------0|-3-4-5-6-|

|-----------------|-----------------|-----------------|-----------------|---------||
|-----------------|-----------------|-----------------|-----------------|---------||
|----7-75---------|---------5-6-7-8-|----7-7705-55----|-5-6-7-8-3-4-5-6-|---------||
|-0-0----73-33-530|-2-22-2223-4-5-6-|-0-0----------750|-3-4-5-6---------|-3-4-5-6-||

Riff 1a
|-----------------|----|----------------------||
|-----------------|-3x-|-----------R---R---R--||
|-----1---1-------|----|-----1---1---11--11--1||
|-0000-0-0---03001|----|-0000-0-0-------------||

Play Verse
Play Chorus

Riff 1b
|-----------------||4x
|-----------------||
|-----1---1-------||
|-0000-0-0---03001||

Riff 2   [double time]
|-----------------|-----------------|--|--|-----------------|-----------------|--|--|
|-----------------|-----------------|-4x--|-----------------|-----------------|-2x--|
|-2-------0-2-----|-2-----------2-5-|--|--|-4-------2-4-----|-4-----------4-7-|--|--|
|-----0h2-----0-0-|-----0-0-2-5-----|--|--|-----2h4-----0-0-|-----0-0-4-7-----|--|--|

|-----------------|-----------------|--|--|---------|
|-----------------|-----------------|-2x--|---------|
|-2-------0-2-----|-2-----------2-5-|--|--|-2---2---|
|-----0h2-----0-0-|-----0-0-2-5-----|--|--|---------|

|-----------------|-----------------|--|--|-----------------|-----------------|--|--|
|-----------------|-----------------|-2x--|-----------------|-----------------|-2x--|
|-2-------0-2-----|-2-----------2-5-|--|--|-4-------2-4-----|-4-----------4-7-|--|--|
|-----0h2-----0-0-|-----0-0-2-5-----|--|--|-----2h4-----0-0-|-----0-0-4-7-----|--|--|

|-----------------|---|-----------------|---|-------------|-------------|
|-----------------|-%-|-----------------|-%-|-------------|-------------|
|-5-------3-5-----|-%-|-6-------4-6-----|-%-|-7-------5-7-|---------5-7-|
|-----3h5-----0-0-|---|-----4h6-----0-0-|---|-----5h7-----|-0---5h7-----|

|---------|-------------|-------------|---------|-----------------||
|---------|-7-9-7-------|-------------|---------|----R------------||
|-----7---|-------109-7-|-7-9-7-------|-----7-9-|-10----- drums --||
|-0-------|-------------|-------108-7-|-7-10----|-----------------||

Riff 3
|-----------------|-----------------|-----------------|-----------------|
|-----------------|-----------------|-----------------|-----------------|
|-------757-----75|-7-----757-------|-------757-----75|-7-----757---6-00|
|-0-000-----000---|---000-----006-00|-5-000-----000---|---000-----00----|

|-----------------|-----------------|-----------------|-----------------|2x this row
|-----------------|-----------------|-----------------|-----------------|
|-5-----757-----75|-7-----757-------|-------757-----75|-7-----757---6-00|
|---000-----000---|---000-----006-00|-5-000-----000---|---000-----00----|

|-----------------|-----------------|-----------------|---------|-----------------||
|-----------------|-----------------|-----------------|---------|-----------------||
|-------757-----75|-7-----757-------|-------757-----75|-7---7-5-|-----------------||
|-0-000-----000---|---000-----006-00|-5-000-----000---|---00----|-6-6-6-6-6-6-5---||

Riff 3a
|-----------------|-----------------|-----------------|-----------------|
|-----------------|-----------------|-----------------|-----------------|
|-----------------|-----------------|-----------------|-----6-0-5-0-0---|
|-0-000-000-006-00|-5-000-000-006-00|-5-000-000-006-0-|-5-0-------------|

|-----------------|-----------------|-----------------|-----------------||2x
|-----------------|-----------------|-----------------|-----------------||
|-----------------|-------------4-00|-3-----------4-00|-3---------------||
|-6---0-000-006-00|-2-222-222-22----|---222-222-22----|---222-222-222---||

Riff 3b
|-----------------|-----------------|-----------------|-----------------|
|-----------------|-----------------|-----------------|-----------------|
|-----------------|-----------------|-----------------|-------------4-00|
|-0-000-000-006-00|-5-000-000-006-00|-5-000-000-006-0-|-2-222-222-22----|

|-----------------|-----------------|-----------------|-----------------|
|-----------------|-----------------|-----------------|-----------------|
|-3-----------4-00|-3-----------4---|-0-000-000-006-00|-5-000-000-006-00|
|---222-222-22----|---222-222-22--2-|-----------------|-----------------|

|-----------------|-----------------|-----------------|-----------------|
|-----------------|-----6-0-5-0-0---|-----------------|-----------------|
|-5-000-000-006-00|-5-0-------------|-6---0-000-006-00|-5-000-000-006-00|
|-----------------|-----------------|-----------------|-----------------|

|-----------------|-----------------|-----------------|-----------------||
|-----------------|-----------------|-----6-0-5-0-----|-----------------||
|-5-000-000-006-00|-5-000-000-006-0-|-5-0---------6-0-|-----------------||
|-----------------|-----------------|-----------------|-6-6-6-6-6-6-5\--||

Riff 4
|-----------------|-----------------|--|--|-----------------|-----------------|
|-----------------|-5---------------|-3x--|-----------------|-5---------------|
|-------5---7-7-7-|---7-5-7---------|--|--|-------5---7-7-7-|---7-5-7-2---2---|
|-3-0-0---0-------|---------0-0-0-0-|--|--|-3-0-0---0-------|-----------------|

|-----------------|-----------------|--|--|-----------------|-----------------|
|-----------------|-----------------|-2x--|-----------------|-----------------|
|-2-------0-2-----|-2-----------2-5-|--|--|-7-------5-7-----|-7-----------7-10|
|-----0h2-----0-0-|-----0-0-2-5-----|--|--|-----5h7-----0-0-|-----0-0-7-10----|

|-----------------|-----------------|--|--|-----------------|-----------------|
|-----------------|-5---------------|-3x--|-----------------|-5---------------|
|-------5---7-7-7-|---7-5-7---------|--|--|-------5---7-7-7-|---7-5-7-7---7---|
|-3-0-0---0-------|---------0-0-0-0-|--|--|-3-0-0---0-------|-----------------|

|-----------------|-----------------|--|--|-----------------|-----------------|
|-----------------|-----------------|-2x--|-----------------|-----------------|
|-7-------5-7-----|-7-----------7-10|--|--|-2-------0-2-----|-2-----------2-5-|
|-----5h7-----0-0-|-----0-0-7-10----|--|--|-----0h2-----0-0-|-----0-0-2-5-----|

|---------|-----------------|-----------------|-----------------|-----------------||
|---------|-----------------|-----------------|-------------R---|-------------R---||
|-2---2---|-2-------0-2-----|-2-----------2-5-|-2---2---1-1-----|---------1-1---1-||
|---------|-----0h2-----0-0-|-----0-0-2-5-----|-----------------|-----------------||

[back to half time]
Play Riff 1a
Play Verse

Final Chorus
|-----------------|---------|-----------------|---------|
|-----------------|---------|-----------------|---------|
|----7--7----4--4-|-5-6-7-8-|----7-75-2-22-32-|---------|
|-0-0--0-02-2--2-2|-3-4-5-6-|-0-0------------0|-3-4-5-6-|

|-----------------|-----------------|-----------------|---------|--|--|-----------------||
|-----------------|-----------------|-----------------|---------|-2x--|---------5-6-7-8-||
|----7-75---------|---------5-6-7-8-|----7-7705-55----|---------|--|--|-3-4-5-6---------||
|-0-0----73-33-530|-2-22-2223-4-5-6-|-0-0----------750|-3-4-5-6-|--|--|-----------------||

Outro
|-----------------|----|-----------------|
|-----------------|-7x-|-----------------|
|-----1---1-------|----|-7777777777777777|
|-0000-0-0---03001|----|-----------------|

[double time]
|-----------------|-----------------|--|--|-----------------|-----------------|
|-----------------|-5---------------|-3x--|-----------------|-5---------------|
|-------5---7-7-7-|---7-5-7---------|--|--|-------5---7-7-7-|---7-5-7---------|
|-3-0-0---0-------|---------0-0-0-0-|--|--|-3-0-0---0-------|---------0-0-0-0-|

|-----------------|-----------------|-----||
|-----------------|-----------------|-----||
|-------5---7-7-7-|-----5-7---------|-7---||
|-3-0-0---0-------|-3-0---0---------|-0---||




-----------------------------------------------------------------------------------------------------------




Metallica-To Live Is to Die

Intro [fade in]
|-----------------||
|-----------------||
|-----------------||
|-0---0---0---0---|| repeat until drum roll

Riff 1
|-----------------|-----------------|-----------------|-----------------|3x this row
|-----------------|-----------------|-----------------|-----------------|
|---------R-------|---------R-------|---------R-------|-----------------|
|-2---2-------0-2-|-3---3-------3p2-|-2---2-------0p2-|-5---5---5p3-3p2-|

|-----------------|-----------------|-----------------|-----------------|
|-----------------|-----------------|-----------------|-----------------|
|-----------------|-----------------|-----------------|-----------------|
|-2-223-332-225-55|-2-223-332-225-55|-2-3-2-5-2-3-2-5-|-2325232523252323|

|-----------------|-----------------|-----------------|-----------------|2x this row
|-----------------|-----------------|-----------------|-----------------|
|---------R-------|---------R-------|---------R-------|-----------------|
|-2---2-------0-2-|-3---3-------3p2-|-2---2-------0p2-|-5---5---5p3-3p2-|

|-----------------|-----------------|-----------------|-----------------|
|-----------------|-----------------|-----------------|-----------------|
|-----------------|-----------------|-----------------|-----------------|
|-2-223-332-225-55|-2-223-332-225-55|-2-3-2-5-2-3-2-5-|-2325232523252323|

|-----------------|-----------------|-----------------|-----------------||2x this row
|-----------------|-----------------|-----------------|-----------------||
|---------R-------|---------R-------|---------R-------|-----------------||
|-2---2-------0-2-|-3---3-------3p2-|-2---2-------0p2-|-5---5---5p3-3p2-||

Riff 2
|-----------------|-----------------|-----------------||2x
|---------|  .  |-|-----------------|---------|  .  |-||
|-|.|-|.|-3--2--0-|---R-------------|-----R---4--3--2-||
|-2-2-5-2---------|-2-------5-------|-2---------------||

Play Riff 1 [first row - 2x] [third row - 4x]

Lead In
|-------------|-------------|-------------|-------------|-------------||
|-------------|-------------|-------------|-------------|-------------||
|---------R---|---------R---|---------R---|-------------|-------------||
|-2---2-------|-3---3-------|-0---0-------|-5-----------|-3-----------||

Riff 3   [] = only first time
|-------------|-------------|-------------|-------------|
|-------------|-------------|-------------|-------------|
|-------------|-------------|---------2---|-------------|
|-5-----5-5-0-|-3-----3-3-0-|-0-----0---0-|-1-------3---|

|-------------|-------------|-------------|-------------||2x
|-------------|-------------|-------------|-------------||
|-------------|-------------|-----------2-|-------------||
|-5-----5-5-7-|-3-----3-3-5-|-0-----0-0---|-3----[3-3-3]||

Rest 16 bars

Riff 4
|-------------|-------------|-------------|-------------|
|/7-----7-797-|-5-----5-7-5-|-------------|-------------|
|-------------|-------------|-7-----7-7-10|-8-------10--|
|-------------|-------------|-------------|-------------|

|-------------|-------------|-------------|-------------|
|-7-----7-797-|-5-----5-575-|-------------|-------------|
|-------------|-------------|-7-----7-107-|-10------10--|
|-------------|-------------|-------------|-------------|

|-------------|-------------|-------------|-------------|
|/7-----7-9109|-5-----5-7-5-|-------------|-------------|
|-------------|-------------|-7-----7-7-10|-8-------10--|
|-------------|-------------|-------------|-------------|

|-------------|-------------|-------------|-------------|
|-7-----7-797-|-5-----5-7-5-|-------------|-------------|
|-------------|-------------|-7-----7-107-|-10--107\----|
|-------------|-------------|-------------|-------------|

|-------------|-------------|-------------|-------------|
|-------------|-------------|-------------|-------------|
|-------------|-------------|-------------|-------------|
|-5-----5-7-5-|-3-----3-5-3-|-0-----0-0-3-|-1-------3---|

|-------------|-------------|-------------|-------------|
|-------------|-------------|-------------|-------------|
|-------------|-------------|-----------2-|-------------|
|-5-----5-575-|-3-----3-353-|-0-----0-0---|-3-------3---|

|-------------|-------------|-------------|-------------|
|-------------|-------------|-------------|-------------|
|-------------|-------------|-------------|-------------|
|-5-----5-575-|-3-----3-353-|-0-----0-0-0-|-1-------3---|

|-------------|-------------|-------------|-------------||
|-------------|-------------|-------------|-------------||
|-------------|-------------|-------------|-------------||
|-5-----5-7-5-|-3-----3-5-3-|-0-----0-3-0-|-3-----3-3/--||

Riff 4a
|-------------|-------------|-------------|-------------|
|-------------|-------------|-------------|-------------|
|-------------|-------------|---------2---|-------------|
|-5-----5-5-0-|-3-----3-3-5-|-0-----0---0-|-1-------3---|

|-------------|-------------|-------------|-------------||2x
|-------------|-------------|-------------|-------------||
|-------------|-------5-----|-----------2-|-------------||
|-5-----5-5-7-|-3-------3-5-|-0-----0-0---|-3-----------||

Riff 4b
|-------------|-------------|-------------|-------------|-------------|2x this row
|-------------|-------------|-------------|-------------|-------------|
|-------------|-------------|-------------|-------------|-------------|
|-5---5-5-0-5-|-5---5-5-0-3-|-5---5-5-0-2-|-3---3-3-3-0-|-3---3-3-3-0-|

|-------------|-------------|-------------|-------------|-------------|
|-------------|-------------|-------------|-------------|-------------|
|-2-222-22----|-2-222-22----|-2-222-22----|-------------|-------------|
|---------2-5-|---------2-5-|---------2-4-|-5-555-555-2-|-5-555-555-2-|

|-------------|-------------|-------------|-------------|-------------|
|-------------|-------------|-------------|-------------|-------------|
|-2-2---------|-2-2---------|-2-----------|-2-----------|-2-----------|
|-------------|-------------|-------------|-------------|-------------|

|-------------|-------------|-------------|-------------|-------------||
|-------------|-------------|-------------|-------------|-------------||
|-2-----------|(2)----------|(2)----------|(2)----------|(2)----------||
|-------------|-------------|-------------|-------------|-------------||

Riff 1a
|-----------------|-----------------|-----------------|-----------------||4x
|-----------------|-----------------|-----------------|-----------------||
|---------R-------|---------R-------|---------R-------|-----------------||
|-2---2-------0-2-|-3---3-------3p2-|-2---2-------0p2-|-5---5---5p3-3p2-||

Play Riff 2 - 2x

Riff 1b
|-----------------|-----------------|-----------------|-----------------|
|-----------------|-----------------|-----------------|-----------------|
|-----------------|-----------------|-----------------|-----------------|
|-2---2---2---0-2-|-3---3---3---3p2-|-2---2---2---0p2-|-5---5---5p3-3p2-|

|-------------|-------------|-------------||
|-------------|-------------|-------------||
|-------------|-------------|-------------||
|-2---2-------|-3---3-------|-0-------0---||

Play Riff 1a - 4x

Outro
|-------------|-------------|| repeat and fade
|-------------|-------------||
|-------------|---------R---||
|-2---2-------|-2---2-------||




-----------------------------------------------------------------------------------------------------------




Metallica-Dyers Eve

Intro
|-----------------|-----------------|-------------|-----------------|-------------|
|-----------------|-----------------|-------------|-----------------|-------------|
|-2-3-2-3---------|---R-------R-----|---R---------|---R-------R-----|---R---------|
|---------0-1-0-1-|-0-------1-------|-0-------3---|-0-------1-------|-0-------0-1-|

|-----------------|-------------|-----------------|-------------||
|-----------------|-------------|-----------------|-------------||
|-----------------|-------------|-----------------|-------------||
|-0-------1-------|-0-------3---|-0-------1-------|-0---0-1-0-1-||

Riff 1
|-----------------|-------------|-----------------|-------------|
|-----------------|-------------|-----------------|-------------|
|-----------------|-------------|-----------------|-------------|
|-0---0-0-1---1-1-|-0---0-0-3---|-0---0-0-1---1-1-|-0---0-0-0-1-|

|-----------------|-------------|-----------------|-------------||2x
|-----------------|-------------|-----------------|-------------||
|-----------------|-------------|-----------------|-------------||
|-0---0-0-1---1-1-|-0---0-0-3---|-0---0-0-1---1-1-|-0---0-1-0-1-||

Lead In
|-----------------||
|-----------------||
|-----------------||
|-0--- let ring --||

Riff 2
|-----------------|-----------------|-----------------|-----------------|
|-----------------|-----------------|-----------------|-----------------|
|-222222223-2-0-2-|-222222223-2-0-2-|-222222223-2-0-2-|-222222223-2-----|
|-----------------|-----------------|-----------------|-------------3-2-|

|-----------------|-----------------|-----------------|-----------------||
|-----------------|-----------------|-----------------|-----------------||
|-222222223-2-0-2-|-222222223-2---0-|-222222223-2-0-2-|-222222223-2-----||
|-----------------|-----------------|-----------------|-------------3-2-||

Riff 1a
|-----------------|-----------------|-----------------|-----------------|
|-----------------|-----------------|-----------------|-----------------|
|---R-------R-----|---R-------R-----|-222222220-2-0-2-|-333333332-0-----|
|-0-------0-------|-0-------0-------|-----------------|-------------3-2-|

|-----------------|-----------------|-----------------|-----------------|
|-----------------|-----------------|-----------------|-----------------|
|---------7-7-----|-5-5-----3-3-----|-222222220-2-0-2-|-333333332-0-----|
|-0---320-----320-|-----320-----320-|-----------------|-------------3-2-|

|-----------------|-----------------|-----------------|-----------------||
|-----------------|---R-------R-----|-----------------|-------------5-4-||
|---R-------R-----|-5-------3-------|-222222220-2-0-2-|-333333333-2-----||
|-0-------0-------|-----------------|-----------------|-----------------||

Play Riff 2

Riff 3
|-----------------|
|-----------------|
|---------7-------|
|-0---320-----0---|

|-----------------|-----------------|-----------------|-----------------|
|-----------------|-----------------|-----------------|-----------------|
|-----------------|-----------------|-----------------|-----------2-3---|
|-200-200-200-200-|-300-300-300-300-|-500-500-5-5-3-3-|-000-000-0-------|

|-----------------|-----------------|-----------------|-----------------|
|-----------------|-----------------|-----------------|-----------------|
|-----------------|-----------------|-700-700-700-700-|-----------------|
|-200-200-200-200-|-300-300-300-300-|-----------------|-555-555-5-2-3-0-|

|-----------------|-----------------|-----------------|-----------------|
|-----------------|-----------------|-----------------|-----------------|
|-----------------|-500-500-500-500-|-----------------|---R-------------|
|-200-200-200-200-|-----------------|-500-500-500-7-0-|-3---------------|

|-----------------|-----------------|-----------------||
|-----------------|-----------------|-----------------||
|-3-2-----3-3-----|-222222223-2-0-2-|-222222223-2-0-2-||
|-----------------|-----------------|-----------------||

Riff 3a
|-----------------|-----------------|-----------------|-----------------|
|-----------------|-----------------|-----------------|-----------------|
|-----------------|-----------------|-----------------|-----------2-3---|
|-200-200-200-200-|-300-300-300-300-|-500-500-5-5-3-2-|-000-000-0-------|

|-----------------|-----------------|-----------------|-----------------|
|-----------------|-----------------|-----------------|-----------------|
|-----------------|-----------------|-700-700-700-700-|-----------------|
|-200-200-200-200-|-300-300-300-300-|-----------------|-555-555-5-2-3-0-|

|-----------------|-----------------|-----------------|-----------------|
|-----------------|-----------------|-----------------|-----------------|
|-----------------|-500-500-500-500-|-----------------|---R-------------|
|-200-200-200-200-|-----------------|-500-500-500-7-0-|-3---------------|

|-----------------||
|-----------------||
|-------------3---||
|-----------------||

Riff 4
|-----------------|-----------------|-----------------|-----------------|
|-----------------|-----------------|-----------------|-----------------|
|-222222223-2-0-2-|-222222223-2-0-2-|-222222223-2-0-2-|-222222223-2-----|
|-----------------|-----------------|-----------------|-------------3-2-|

|-----------------|-----------------|-----------------|-----------------|
|-----------------|-----------------|-----------------|-----------------|
|---R-------R-----|-222222223-2-0-2-|-333333332-0-----|---------7-------|
|-0-------0-------|-----------------|-------------3-2-|-0---320-----0---|

|-----------------|-----------------|-----------------|-----------------|
|-----------------|-----------------|-----------------|-----------------|
|-----------------|---------7---7---|-5-5-5---5-5-5---|---------7-------|
|-0---0-0-0---0-0-|-0---320---------|-----------------|-0---320-----0---|

|-----------------|-----------------|-----------------|-------------||
|-----------------|-----------------|-----------------|-------------||
|-----------------|---------7---7---|-023-3---3---222-|-222-222-222-||
|-0---0-0-0---0-0-|-0---320---------|-----------------|-------------||

Play Riff 2
Play Riff 3
Play Riff 3a
Play Riff 4

Pre-Solo
|-----------------|-----------------|-----------------|-----------------|
|-----------------|-----------------|-----------------|-----------------|
|-222222223-2-0-2-|-222222223-2-0-2-|-222222223-2-0-2-|-222222223-2-----|
|-----------------|-----------------|-----------------|-------------3-2-|

|-----------------|-----------------|-----------------|-----------------|---------|
|-----------------|-----------------|-----------------|-----------------|---------|
|-222222223-2-0-2-|-222222223-2---0-|-222222223-2-0-2-|-222222222-3-2-3-|---------|
|-----------------|-----------------|-----------------|-----------------|-0-1-0-1-|

|-----------------|-------------|-----------------|-------------|
|-----------------|-------------|-----------------|-------------|
|-----------------|-------------|-----------------|-------------|
|-0---0-0-1---1-1-|-0---0-0-3---|-0---0-0-1---1-1-|-0---0-0-0-1-|

|-----------------|-------------|-----------------|-------------|
|-----------------|-------------|-----------------|-------------|
|-----------------|-------------|-----------------|-------------|
|-0---0-0-1---1-1-|-0---0-0-3---|-0---0-0-1---1-1-|-0---0-1-0-1-|

|-----------------|-------------|-----------------|-------------|---------||
|-----------------|-------------|-----------------|-------------|---------||
|-----------------|-------------|-----------------|-------------|-2-3-2-3-||
|-0---0-0-1---1-1-|-0---0-0-3---|-0---0-0-1---1-1-|-0---0-1-0-1-|---------||

Solo
|-----------------|----|-----------------|2x this row
|-------------0-2-|-3x-|-----------------|
|-----------------|----|-----------------|
|-000000001-0-----|----|-000000000-1-0-1-|

|-----------------|----|-----------------|
|-----------------|-3x-|-----------------|
|-----------------|----|-----------------|
|-222222223-2-0-2-|----|-222222222-3-2-3-|

|-----------------|----|-----------------|---------|
|-----------------|-3x-|-----------------|---------|
|-----------------|----|-----------------|---------|
|-222222223-2-0-2-|----|-22222222222-222-|-222-222-|

|-----------------|-----------------|-----------------|-----------------|
|-----------------|-----------------|-----------------|-----------------|
|-----------------|-----------------|-----------------|-----------2-3---|
|-200-200-200-200-|-300-300-300-300-|-500-500-5-5-3-2-|-000-000-0-------|

|-----------------|----|-----------------|---------|-----------------|
|-----------------|-3x-|-----------------|---------|-----------------|
|-----------------|----|-----------------|---------|-----------------|
|-222222223-2-0-2-|----|-22222222222-222-|-222-222-|-222-222-222-222-|

|-----------------|----|-----------------|
|-------------0-2-|-3x-|-----------------|
|-----------------|----|-----------------|
|-000000001-0-----|----|-000000001-0-1-0-|

|-----------------|-----------------|-----------------|-----------------|
|-----------------|-----------------|-----------------|-----------------|
|-----------------|-500-500-500-500-|-----------------|-----------------|
|-200-200-200-200-|-----------------|-500-500-500-7-0-|-333-333-333-333-|

|-----------------|-----------------|-----------------||
|-----------------|-----------------|-----------------||
|-----------------|---R-------------|---R-------------||
|-333-333-333-333-|-3-------------3-|-3---------------||

Riff 5
|-----------------|----|-----------------|
|-------------0-2-|-3x-|-----------------|
|-----------------|----|-----------------|
|-0-000-0-1-0-----|----|-0-000-0-0-1-0-1-|

|-----------------|-----------------|-----------------|-----------------|
|-------------0-2-|---------------0-|-------------0-2-|-----------------|
|-----------------|-----------------|-----------------|-------------R---|
|-0-000-0-1-0-----|-0-000-0-1-0-----|-0-000-0-1-0-----|-0-000-0-0-1---1-|

|-----------------|----|-----------------|
|-------------0-2-|-3x-|-----------------|
|-----------------|----|-----------------|
|-0-000-0-1-0-----|----|-0-000-0-0-1-0-1-|

|-----------------|-----------------|-----------------|-----------------|
|-------------0-2-|---------------0-|-------------0-2-|-----------------|
|-----------------|-----------------|-----------------|-----------------|
|-0-000-0-1-0-----|-0-000-0-1-0-----|-0-000-0-1-0-----|-0-000-0-0-1-0-1-|

|-----------------|-----------------|-----------------|-----------------|
|-----------------|-----------------|-----------------|-----------------|
|---------7-------|-----7-----------|---R-------R-----|-----------------|
|-0---320-----0---|-320-----0---320-|-0-------0-------|-000-000-000-000-|

|-----------------||
|-----------------||
|---------7-------||
|-0---320-----0---||

Play Riff 3a

Outro
|---------|-----------------|-------------|-----------------|-------------|---||
|---------|-----------------|-------------|-----------------|-------------|---||
|-2-3-2-3-|-----------------|-------------|-----------------|-------------|---||
|---------|-0---0-0-1---1-1-|-0---0-0-3---|-0---0-0-1---1-1-|-0---0-1-0-1-|-0-||


My hands hurt...


-----------------------------------------------------------------------------------------------------------
Добавлено: 09.05.2015
Другие материалы по этой песне:
  • Аккорды и текст

Страница создана 09.05.2015
http://primanota.ru/metallica/and-justice-for-all-ver-3-album-chords.htm
Привет, Гость.
Предлагаем пройти революционный курс по гитаре.
Подарок от PrimaNota.Ru, забирай!