PrimaNota.ru - самый крупный в мире бесплатный архив песенных текстов, аккордов, табулатур и нот


Metal Force - Hail To Majesty - таба, бас-таба, видео

Регистрация Запомнить меня
Войти через:  Facebook Google Twitter Vk Yandex Mail.ru

Metal Force - Hail To Majesty - таба, бас-таба, видео

Печатать
Просмотров: 114
                                         
Official Metalforce site - http://metalforce.de/


Guitar 1


     E  E  E  H        E     E  E  E  Q.     E  E     Q.     Q.     Q     
E||-----------------------|------------------------|---------------------|
B||-----------------------|------------------------|---------------------|
G||-----------3--------L--|-----------3------------|---------------------|
D||-----------------------|------------------6--5--|--3-------------5----|
A||--3--5--6--------------|--3--5--6---------------|---------6-----------|
E||-----------------------|------------------------|---------------------|


  Q.     Q.     Q       E  E  E  H        E     E  E  E  Q.     E  E   
---------------------|-----------------------|------------------------|
---------------------|-----------------------|------------------------|
---------------------|-----------3--------L--|-----------3------------|
--3------------------|-----------------------|------------------6--5--|
---------6------5----|--3--5--6--------------|--3--5--6---------------|
---------------------|-----------------------|------------------------|


  Q.     Q.     Q       Q.     Q.     Q       W                 
---------------------|---------------------|-------------------|
---------------------|---------------------|-------------------|
---------------------|---------------------|-------------------|
--3-------------5----|--3------------------|-------------------|
---------6-----------|---------6------5----|--3----------------|
---------------------|---------------------|-------------------|


  W                                                                         
-------------------|-------|-------|-------|-------|-------|-------|-------|
-------------------|-------|-------|-------|-------|-------|-------|-------|
-------------------|-------|-------|-------|-------|-------|-------|-------|
-------------------|-------|-------|-------|-------|-------|-------|-------|
--L----------------|-------|-------|-------|-------|-------|-------|-------|
-------------------|-------|-------|-------|-------|-------|-------|-------|


-------|-------|-------|-------|-------|-------|-------|
-------|-------|-------|-------|-------|-------|-------|
-------|-------|-------|-------|-------|-------|-------|
-------|-------|-------|-------|-------|-------|-------|
-------|-------|-------|-------|-------|-------|-------|
-------|-------|-------|-------|-------|-------|-------|


  E  E  E  E  E  E  E  E     E  E  E  E  E  E  E  E   
--------------------------|--------------------------|
--------------------------|--------------------------|
--------------------------|--------------------------|
--8--------8--------8-----|--------------------------|
--6--x--x--6--x--x--6--x--|--8--------8--------8-----|
--------------------------|--6--x--x--6--x--x--6--x--|


  E  E  E  E  E  E  E  E     E  E  E  E  E  E  E  E   
--------------------------|--------------------------|
--------------------------|--------------------------|
--------------------------|--------------------------|
--------------------------|--------------------------|
--3--------3--------3-----|--3--------3--------3-----|
--1--x--x--1--x--x--1--x--|--1--x--x--1--x--x--1--x--|


  E  E  E  E  E  E  E  E     E  E  E  E  E  E  E  E   
--------------------------|--------------------------|
--------------------------|--------------------------|
--------------------------|--------------------------|
--------------------------|--------------------------|
--6--------6--------6-----|--8--------8--------8-----|
--4--x--x--4--x--x--4--x--|--6--x--x--6--x--x--6--x--|


  E  E  E  E  E  E  E  E     E  E  E  E  E  E  E  E   
--------------------------|--------------------------|
--------------------------|--------------------------|
--------------------------|--------------------------|
--5--------5--------5-----|--5--------5--------5-----|
--3--x--x--3--x--x--3--x--|--3--x--x--3--x--x--3--x--|
--------------------------|--------------------------|


  E  E  E  E  E  E  E  E     E  E  E  E  E  E  E  E   
--------------------------|--------------------------|
--------------------------|--------------------------|
--------------------------|--------------------------|
--8--------8--------8-----|--------------------------|
--6--x--x--6--x--x--6--x--|--8--------8--------8-----|
--------------------------|--6--x--x--6--x--x--6--x--|


  E  E  E  E  E  E  E  E     E  E  E  E  E  E  E  E   
--------------------------|--------------------------|
--------------------------|--------------------------|
--------------------------|--------------------------|
--------------------------|--------------------------|
--3--------3--------3-----|--3--------3--------3-----|
--1--x--x--1--x--x--1--x--|--1--x--x--1--x--x--1--x--|


  E  E  E  E  E  E  E  E     E  E  E  E  E  E  E  E     E  Q    E  Q    E  E   
--------------------------|--------------------------|------------------------|
--------------------------|--------------------------|------------------------|
--------------------------|--------------------------|------------------------|
--------------------------|--------------------------|--8-------8-------8-----|
--6--------6--------6-----|--8--------8--------8-----|--8-------8-------8-----|
--4--x--x--4--x--x--4--x--|--6--x--x--6--x--x--6--x--|--6-------6-------6-----|


  W                     E  S S E  S S E  S S E  S S    E  S S E  S S Q    Q     
-------------------||-------------------------------|--------------------------|
-------------------||-------------------------------|--------------------------|
-------------------||*------------------------------|----------------8----8----|
-------------------||*--5--5-5-5--5-5-5--5-5-5--5-5-|--5--5-5-5--5-5-8----8----|
-------------------||---3--3-3-3--3-3-3--3-3-3--3-3-|--3--3-3-3--3-3-6----6----|
-------------------||-------------------------------|--------------------------|


  E  S S E  S S E  S S E  S S    E  S S E  S S Q    Q     
------------------------------|--------------------------|
------------------------------|--------------------------|
------------------------------|----------------8----8----|
------------------------------|----------------8----8----|
--8--8-8-8--8-8-8--8-8-8--8-8-|--8--8-8-8--8-8-6----6----|
--6--6-6-6--6-6-6--6-6-6--6-6-|--6--6-6-6--6-6-----------|


  E  S S E  S S E  S S E  S S    E  S S E  S S Q    Q     
------------------------------|--------------------------|
------------------------------|--------------------------|
------------------------------|----------------8----8----|
------------------------------|----------------8----8----|
--8--8-8-8--8-8-8--8-8-8--8-8-|--8--8-8-8--8-8-6----6----|
--6--6-6-6--6-6-6--6-6-6--6-6-|--6--6-6-6--6-6-----------|


  E  S S E  S S E  S S E  S S    E  S S E  S S E  S S E  S S    
------------------------------|-------------------------------||
------------------------------|-------------------------------||
------------------------------|------------------------------*||
--5--5-5-5--5-5-5--5-5-5--5-5-|--5--5-5-5--5-5-5--5-5-5--5-5-*||
--3--3-3-3--3-3-3--3-3-3--3-3-|--3--3-3-3--3-3-3--3-3-3--3-3--||
------------------------------|-------------------------------||


  E  S S E  S S E  S S E  S S    E  S S E  S S E  S S E  S S  
------------------------------|------------------------------|
------------------------------|------------------------------|
------------------------------|------------------------------|
--5--5-5-5--5-5-5--5-5-5--5-5-|--5--5-5-5--5-5-5--5-5-5--5-5-|
--3--3-3-3--3-3-3--3-3-3--3-3-|--3--3-3-3--3-3-3--3-3-3--3-3-|
------------------------------|------------------------------|


  E  E  E  H        E     E  E  E  Q.     E  E     Q.     Q.     Q     
-----------------------|------------------------|---------------------|
-----------------------|------------------------|---------------------|
-----------3--------L--|-----------3------------|---------------------|
-----------------------|------------------6--5--|--3-------------5----|
--3--5--6--------------|--3--5--6---------------|---------6-----------|
-----------------------|------------------------|---------------------|


  Q.     Q.     Q       E  E  E  H        E     E  E  E  Q.     E  E   
---------------------|-----------------------|------------------------|
---------------------|-----------------------|------------------------|
---------------------|-----------3--------L--|-----------3------------|
--3------------------|-----------------------|------------------6--5--|
---------6------5----|--3--5--6--------------|--3--5--6---------------|
---------------------|-----------------------|------------------------|


  Q.     Q.     Q       Q.     Q.     Q       W                 
---------------------|---------------------|-------------------|
---------------------|---------------------|-------------------|
---------------------|---------------------|-------------------|
--3-------------5----|--3------------------|-------------------|
---------6-----------|---------6------5----|--3----------------|
---------------------|---------------------|-------------------|


  W                                                                         
-------------------|-------|-------|-------|-------|-------|-------|-------|
-------------------|-------|-------|-------|-------|-------|-------|-------|
-------------------|-------|-------|-------|-------|-------|-------|-------|
-------------------|-------|-------|-------|-------|-------|-------|-------|
--L----------------|-------|-------|-------|-------|-------|-------|-------|
-------------------|-------|-------|-------|-------|-------|-------|-------|


-------|-------|-------|-------|-------|-------|-------|
-------|-------|-------|-------|-------|-------|-------|
-------|-------|-------|-------|-------|-------|-------|
-------|-------|-------|-------|-------|-------|-------|
-------|-------|-------|-------|-------|-------|-------|
-------|-------|-------|-------|-------|-------|-------|


  E  E  E  E  E  E  E  E     E  E  E  E  E  E  E  E   
--------------------------|--------------------------|
--------------------------|--------------------------|
--------------------------|--------------------------|
--8--------8--------8-----|--------------------------|
--6--x--x--6--x--x--6--x--|--8--------8--------8-----|
--------------------------|--6--x--x--6--x--x--6--x--|


  E  E  E  E  E  E  E  E     E  E  E  E  E  E  E  E   
--------------------------|--------------------------|
--------------------------|--------------------------|
--------------------------|--------------------------|
--------------------------|--------------------------|
--3--------3--------3-----|--3--------3--------3-----|
--1--x--x--1--x--x--1--x--|--1--x--x--1--x--x--1--x--|


  E  E  E  E  E  E  E  E     E  E  E  E  E  E  E  E   
--------------------------|--------------------------|
--------------------------|--------------------------|
--------------------------|--------------------------|
--------------------------|--------------------------|
--6--------6--------6-----|--8--------8--------8-----|
--4--x--x--4--x--x--4--x--|--6--x--x--6--x--x--6--x--|


  E  E  E  E  E  E  E  E     E  E  E  E  E  E  E  E   
--------------------------|--------------------------|
--------------------------|--------------------------|
--------------------------|--------------------------|
--5--------5--------5-----|--5--------5--------5-----|
--3--x--x--3--x--x--3--x--|--3--x--x--3--x--x--3--x--|
--------------------------|--------------------------|


  E  E  E  E  E  E  E  E     E  E  E  E  E  E  E  E   
--------------------------|--------------------------|
--------------------------|--------------------------|
--------------------------|--------------------------|
--8--------8--------8-----|--------------------------|
--6--x--x--6--x--x--6--x--|--8--------8--------8-----|
--------------------------|--6--x--x--6--x--x--6--x--|


  E  E  E  E  E  E  E  E     E  E  E  E  E  E  E  E   
--------------------------|--------------------------|
--------------------------|--------------------------|
--------------------------|--------------------------|
--------------------------|--------------------------|
--3--------3--------3-----|--3--------3--------3-----|
--1--x--x--1--x--x--1--x--|--1--x--x--1--x--x--1--x--|


  E  E  E  E  E  E  E  E     E  E  E  E  E  E  E  E     E  Q    E  Q    E  E   
--------------------------|--------------------------|------------------------|
--------------------------|--------------------------|------------------------|
--------------------------|--------------------------|------------------------|
--------------------------|--------------------------|--8-------8-------8-----|
--6--------6--------6-----|--8--------8--------8-----|--8-------8-------8-----|
--4--x--x--4--x--x--4--x--|--6--x--x--6--x--x--6--x--|--6-------6-------6-----|


  W                     E  S S E  S S E  S S E  S S    E  S S E  S S Q    Q     
-------------------||-------------------------------|--------------------------|
-------------------||-------------------------------|--------------------------|
-------------------||*------------------------------|----------------8----8----|
-------------------||*--5--5-5-5--5-5-5--5-5-5--5-5-|--5--5-5-5--5-5-8----8----|
-------------------||---3--3-3-3--3-3-3--3-3-3--3-3-|--3--3-3-3--3-3-6----6----|
-------------------||-------------------------------|--------------------------|


  E  S S E  S S E  S S E  S S    E  S S E  S S Q    Q     
------------------------------|--------------------------|
------------------------------|--------------------------|
------------------------------|----------------8----8----|
------------------------------|----------------8----8----|
--8--8-8-8--8-8-8--8-8-8--8-8-|--8--8-8-8--8-8-6----6----|
--6--6-6-6--6-6-6--6-6-6--6-6-|--6--6-6-6--6-6-----------|


  E  S S E  S S E  S S E  S S    E  S S E  S S Q    Q     
------------------------------|--------------------------|
------------------------------|--------------------------|
------------------------------|----------------8----8----|
------------------------------|----------------8----8----|
--8--8-8-8--8-8-8--8-8-8--8-8-|--8--8-8-8--8-8-6----6----|
--6--6-6-6--6-6-6--6-6-6--6-6-|--6--6-6-6--6-6-----------|


  E  S S E  S S E  S S E  S S    E  S S E  S S E  S S E  S S         
------------------------------|-------------------------------||----|
------------------------------|-------------------------------||----|
------------------------------|------------------------------*||----|
--5--5-5-5--5-5-5--5-5-5--5-5-|--5--5-5-5--5-5-5--5-5-5--5-5-*||----|
--3--3-3-3--3-3-3--3-3-3--3-3-|--3--3-3-3--3-3-3--3-3-3--3-3--||----|
------------------------------|-------------------------------||----|


  H        E   E  E   E      H.            E   E     Q     E   H        E   
-------------------------|------------------------|------------------------|
-------------------------|------------------------|------------------------|
-------------------------|------------------------|--8----10------------8--|
-------------------------|--10~------------L--10--|-----------10-----------|
--------------10--8--10--|------------------------|------------------------|
-------------------------|------------------------|------------------------|


   S  S  S S  S  S  S S  S  S  S S  S  S  S S  
----------------------------------------------|
----------------------------------------------|
--10p-8----8-10p-8----8-10p-8----8-10p-8----8-|
--------10---------10---------10---------10---|
----------------------------------------------|
----------------------------------------------|


   S  S  S S  S  S  S S  S  S  S S  S  S  S S     Q.       H         E   
----------------------------------------------|-------------------------|
----------------------------------------------|-----------11---------L--|
--10p-8----8-10p-8----8-10p-8----8-10p-8----8-|--10b------10b--------L--|
--------10---------10---------10---------10---|-------------------------|
----------------------------------------------|-------------------------|
----------------------------------------------|-------------------------|


  E   E   E   Q     E   E   E     W                    W                 
-------------------------------|--------------------|-------------------|
--L------13--------------------|--------------------|-------------------|
--L--12------10b----8----------|--------------------|-------------------|
-----------------------10--10--|--L~----------------|--L----------------|
-------------------------------|--------------------|-------------------|
-------------------------------|--------------------|-------------------|


                               PH                                             
  E   E  E   H        E        E  Q    H        E     E   E  E   H        E   
-------------------------|-------------------------|-------------------------|
-------------------------|--<>13--8----8--------L--|-------------------------|
---------8---------------|-------------------------|---------8---------------|
--8--10-----10--------L--|-------------------------|--8--10-----10--------L--|
-------------------------|-------------------------|-------------------------|
-------------------------|-------------------------|-------------------------|


    PH            PH                                    
    E   Q.        Q.     E     E   E  E   Q.      Q     
---------------<>12------L--|--------------------------|
----------------------------|--------------------------|
--<>8-----------------------|---------8--10b------L----|
-------10-------------------|--8--10-------------------|
----------------------------|--------------------------|
----------------------------|--------------------------|


  E   E     E     E     Q.       E     E   H.           E     W                 
------------------------------------|----------------------|-------------------|
------------------------------------|----------------------|-------------------|
--L--10pb--10pb--10pb--10pb------8--|--8-------------------|-------------------|
------------------------------------|-----10------------L--|--L----------------|
------------------------------------|----------------------|-------------------|
------------------------------------|----------------------|-------------------|


-------|-------|-------|-------|-------|-------|-------|-------|-------|-------|
-------|-------|-------|-------|-------|-------|-------|-------|-------|-------|
-------|-------|-------|-------|-------|-------|-------|-------|-------|-------|
-------|-------|-------|-------|-------|-------|-------|-------|-------|-------|
-------|-------|-------|-------|-------|-------|-------|-------|-------|-------|
-------|-------|-------|-------|-------|-------|-------|-------|-------|-------|


    E  S S E  S S E  S S E  S S    E  S S E  S S Q    Q     
|-------------------------------|--------------------------|
|-------------------------------|--------------------------|
|*------------------------------|----------------8----8----|
|*--5--5-5-5--5-5-5--5-5-5--5-5-|--5--5-5-5--5-5-8----8----|
|---3--3-3-3--3-3-3--3-3-3--3-3-|--3--3-3-3--3-3-6----6----|
|-------------------------------|--------------------------|


  E  S S E  S S E  S S E  S S    E  S S E  S S Q    Q     
------------------------------|--------------------------|
------------------------------|--------------------------|
------------------------------|----------------8----8----|
------------------------------|----------------8----8----|
--8--8-8-8--8-8-8--8-8-8--8-8-|--8--8-8-8--8-8-6----6----|
--6--6-6-6--6-6-6--6-6-6--6-6-|--6--6-6-6--6-6-----------|


  E  S S E  S S E  S S E  S S    E  S S E  S S Q    Q     
------------------------------|--------------------------|
------------------------------|--------------------------|
------------------------------|----------------8----8----|
------------------------------|----------------8----8----|
--8--8-8-8--8-8-8--8-8-8--8-8-|--8--8-8-8--8-8-6----6----|
--6--6-6-6--6-6-6--6-6-6--6-6-|--6--6-6-6--6-6-----------|


  E  S S E  S S E  S S E  S S    E  S S E  S S E  S S E  S S    
------------------------------|-------------------------------||
------------------------------|-------------------------------||
------------------------------|------------------------------*||
--5--5-5-5--5-5-5--5-5-5--5-5-|--5--5-5-5--5-5-5--5-5-5--5-5-*||
--3--3-3-3--3-3-3--3-3-3--3-3-|--3--3-3-3--3-3-3--3-3-3--3-3--||
------------------------------|-------------------------------||


  E  S S E  S S E  S S E  S S    E  S S E  S S E  S S E  S S  
------------------------------|------------------------------|
------------------------------|------------------------------|
------------------------------|------------------------------|
--5--5-5-5--5-5-5--5-5-5--5-5-|--5--5-5-5--5-5-5--5-5-5--5-5-|
--3--3-3-3--3-3-3--3-3-3--3-3-|--3--3-3-3--3-3-3--3-3-3--3-3-|
------------------------------|------------------------------|


    E  S S E  S S E  S S E  S S    E  S S E  S S Q    Q     
|-------------------------------|--------------------------|
|-------------------------------|--------------------------|
|*------------------------------|----------------8----8----|
|*--5--5-5-5--5-5-5--5-5-5--5-5-|--5--5-5-5--5-5-8----8----|
|---3--3-3-3--3-3-3--3-3-3--3-3-|--3--3-3-3--3-3-6----6----|
|-------------------------------|--------------------------|


  E  S S E  S S E  S S E  S S    E  S S E  S S Q    Q     
------------------------------|--------------------------|
------------------------------|--------------------------|
------------------------------|----------------8----8----|
------------------------------|----------------8----8----|
--8--8-8-8--8-8-8--8-8-8--8-8-|--8--8-8-8--8-8-6----6----|
--6--6-6-6--6-6-6--6-6-6--6-6-|--6--6-6-6--6-6-----------|


  E  S S E  S S E  S S E  S S    E  S S E  S S Q    Q     
------------------------------|--------------------------|
------------------------------|--------------------------|
------------------------------|----------------8----8----|
------------------------------|----------------8----8----|
--8--8-8-8--8-8-8--8-8-8--8-8-|--8--8-8-8--8-8-6----6----|
--6--6-6-6--6-6-6--6-6-6--6-6-|--6--6-6-6--6-6-----------|


  E  S S E  S S E  S S E  S S    E  S S E  S S E  S S E  S S    
------------------------------|-------------------------------||
------------------------------|-------------------------------||
------------------------------|------------------------------*||
--5--5-5-5--5-5-5--5-5-5--5-5-|--5--5-5-5--5-5-5--5-5-5--5-5-*||
--3--3-3-3--3-3-3--3-3-3--3-3-|--3--3-3-3--3-3-3--3-3-3--3-3--||
------------------------------|-------------------------------||


  E  S S E  S S E  S S E  S S    E  S S E  S S E  S S E  S S  
------------------------------|------------------------------|
------------------------------|------------------------------|
------------------------------|------------------------------|
--5--5-5-5--5-5-5--5-5-5--5-5-|--5--5-5-5--5-5-5--5-5-5--5-5-|
--3--3-3-3--3-3-3--3-3-3--3-3-|--3--3-3-3--3-3-3--3-3-3--3-3-|
------------------------------|------------------------------|


  E  S S E  S S E  S S E  S S    E  S S E  S S Q    Q     
------------------------------|--------------------------|
------------------------------|--------------------------|
------------------------------|----------------8----8----|
--5--5-5-5--5-5-5--5-5-5--5-5-|--5--5-5-5--5-5-8----8----|
--3--3-3-3--3-3-3--3-3-3--3-3-|--3--3-3-3--3-3-6----6----|
------------------------------|--------------------------|


  E  S S E  S S E  S S E  S S    E  S S E  S S Q    Q     
------------------------------|--------------------------|
------------------------------|--------------------------|
------------------------------|----------------8----8----|
------------------------------|----------------8----8----|
--8--8-8-8--8-8-8--8-8-8--8-8-|--8--8-8-8--8-8-6----6----|
--6--6-6-6--6-6-6--6-6-6--6-6-|--6--6-6-6--6-6-----------|


  E  S S E  S S E  S S E  S S   
------------------------------||
------------------------------||
------------------------------||
------------------------------||
--8--8-8-8--8-8-8--8-8-8--8-8-||
--6--6-6-6--6-6-6--6-6-6--6-6-||



                               
Guitar 2


     E  S S E  S S E  S S E  S S    E  S S E  S S E  S S E  S S  
E||------------------------------|------------------------------|
B||------------------------------|------------------------------|
G||------------------------------|------------------------------|
D||--5--5-5-5--5-5-5--5-5-5--5-5-|--5--5-5-5--5-5-5--5-5-5--5-5-|
A||--3--3-3-3--3-3-3--3-3-3--3-3-|--3--3-3-3--3-3-3--3-3-3--3-3-|
E||------------------------------|------------------------------|


  E  S S E  S S E  S S E  S S    E  S S E  S S E  S S E  S S  
------------------------------|------------------------------|
------------------------------|------------------------------|
------------------------------|------------------------------|
------------------------------|------------------------------|
--6--6-6-6--6-6-6--6-6-6--6-6-|--8--8-8-8--8-8-8--8-8-8--8-8-|
--4--4-4-4--4-4-4--4-4-4--4-4-|--6--6-6-6--6-6-6--6-6-6--6-6-|


  E  S S E  S S E  S S E  S S    E  S S E  S S E  S S E  S S  
------------------------------|------------------------------|
------------------------------|------------------------------|
------------------------------|------------------------------|
--5--5-5-5--5-5-5--5-5-5--5-5-|--5--5-5-5--5-5-5--5-5-5--5-5-|
--3--3-3-3--3-3-3--3-3-3--3-3-|--3--3-3-3--3-3-3--3-3-3--3-3-|
------------------------------|------------------------------|


  E  S S E  S S E  S S E  S S    E  S S E  S S E  S S E  S S  
------------------------------|------------------------------|
------------------------------|------------------------------|
------------------------------|------------------------------|
------------------------------|------------------------------|
--6--6-6-6--6-6-6--6-6-6--6-6-|--8--8-8-8--8-8-8--8-8-8--8-8-|
--4--4-4-4--4-4-4--4-4-4--4-4-|--6--6-6-6--6-6-6--6-6-6--6-6-|


  Q    E  E  E  Q.        Q    E  E  E  Q.        H        E  E  Q     
-----------------------|-----------------------|----------------------|
-----------------------|-----------------------|----------------------|
-----------------------|-----------------------|----------------------|
-------5-----5---------|-------5-----5---------|----------------------|
--3-------3-----3------|--3-------3-----3------|-----------6-----6----|
-----------------------|-----------------------|--4-----------4-------|


  H        E  E  Q       Q    E  E  E  Q.        Q    E  E  E  Q.      
----------------------|-----------------------|-----------------------|
----------------------|-----------------------|-----------------------|
----------------------|-----------------------|-----------------------|
----------------------|-----------------------|-----------------------|
-----------6-----6----|-------5-----5---------|-------5-----5---------|
--4-----------4-------|--3-------3-----3------|--3-------3-----3------|


  H        E  E  Q       H        E  E  Q       Q    E  E  E  Q.      
----------------------|----------------------|-----------------------|
----------------------|----------------------|-----------------------|
----------------------|----------------------|-----------------------|
-----------3-----3----|-----------3-----3----|-------5-----5---------|
--1-----------1-------|--1-----------1-------|--3-------3-----3------|
----------------------|----------------------|-----------------------|


  Q    E  E  E  Q.        H        E  E  Q       H        E  E  Q     
-----------------------|----------------------|----------------------|
-----------------------|----------------------|----------------------|
-----------------------|----------------------|----------------------|
-------5-----5---------|----------------------|----------------------|
--3-------3-----3------|-----------6-----6----|-----------6-----6----|
-----------------------|--4-----------4-------|--4-----------4-------|


  Q    E  E  E  Q.        Q    E  E  E  Q.        H        E  E  Q     
-----------------------|-----------------------|----------------------|
-----------------------|-----------------------|----------------------|
-----------------------|-----------------------|----------------------|
-----------------------|-----------------------|-----------3-----3----|
-------5-----5---------|-------5-----5---------|--1-----------1-------|
--3-------3-----3------|--3-------3-----3------|----------------------|


  H        E  E  Q       E  E  E  E  E  E  E  E     E  E  E  E  E  E  E  E   
----------------------|--------------------------|--------------------------|
----------------------|--------------------------|--------------------------|
----------------------|--------------------------|--------------------------|
-----------3-----3----|--8--------8--------8-----|--------------------------|
--1-----------1-------|--6--x--x--6--x--x--6--x--|--8--------8--------8-----|
----------------------|--------------------------|--6--x--x--6--x--x--6--x--|


  E  E  E  E  E  E  E  E     E  E  E  E  E  E  E  E   
--------------------------|--------------------------|
--------------------------|--------------------------|
--------------------------|--------------------------|
--------------------------|--------------------------|
--3--------3--------3-----|--3--------3--------3-----|
--1--x--x--1--x--x--1--x--|--1--x--x--1--x--x--1--x--|


  E  E  E  E  E  E  E  E     E  E  E  E  E  E  E  E   
--------------------------|--------------------------|
--------------------------|--------------------------|
--------------------------|--------------------------|
--------------------------|--------------------------|
--6--------6--------6-----|--8--------8--------8-----|
--4--x--x--4--x--x--4--x--|--6--x--x--6--x--x--6--x--|


  E  E  E  E  E  E  E  E     E  E  E  E  E  E  E  E   
--------------------------|--------------------------|
--------------------------|--------------------------|
--------------------------|--------------------------|
--5--------5--------5-----|--5--------5--------5-----|
--3--x--x--3--x--x--3--x--|--3--x--x--3--x--x--3--x--|
--------------------------|--------------------------|


  E  E  E  E  E  E  E  E     E  E  E  E  E  E  E  E   
--------------------------|--------------------------|
--------------------------|--------------------------|
--------------------------|--------------------------|
--8--------8--------8-----|--------------------------|
--6--x--x--6--x--x--6--x--|--8--------8--------8-----|
--------------------------|--6--x--x--6--x--x--6--x--|


  E  E  E  E  E  E  E  E     E  E  E  E  E  E  E  E   
--------------------------|--------------------------|
--------------------------|--------------------------|
--------------------------|--------------------------|
--------------------------|--------------------------|
--3--------3--------3-----|--3--------3--------3-----|
--1--x--x--1--x--x--1--x--|--1--x--x--1--x--x--1--x--|


  E  E  E  E  E  E  E  E     E  E  E  E  E  E  E  E     E  Q    E  Q    E  E   
--------------------------|--------------------------|------------------------|
--------------------------|--------------------------|------------------------|
--------------------------|--------------------------|------------------------|
--------------------------|--------------------------|--8-------8-------8-----|
--6--------6--------6-----|--8--------8--------8-----|--8-------8-------8-----|
--4--x--x--4--x--x--4--x--|--6--x--x--6--x--x--6--x--|--6-------6-------6-----|


  W                     E  S S E  S S E  S S E  S S    E  S S E  S S Q    Q     
-------------------||-------------------------------|--------------------------|
-------------------||-------------------------------|--------------------------|
-------------------||*------------------------------|----------------8----8----|
-------------------||*--5--5-5-5--5-5-5--5-5-5--5-5-|--5--5-5-5--5-5-8----8----|
-------------------||---3--3-3-3--3-3-3--3-3-3--3-3-|--3--3-3-3--3-3-6----6----|
-------------------||-------------------------------|--------------------------|


  E  S S E  S S E  S S E  S S    E  S S E  S S Q    Q     
------------------------------|--------------------------|
------------------------------|--------------------------|
------------------------------|----------------8----8----|
------------------------------|----------------8----8----|
--8--8-8-8--8-8-8--8-8-8--8-8-|--8--8-8-8--8-8-6----6----|
--6--6-6-6--6-6-6--6-6-6--6-6-|--6--6-6-6--6-6-----------|


  E  S S E  S S E  S S E  S S    E  S S E  S S Q    Q     
------------------------------|--------------------------|
------------------------------|--------------------------|
------------------------------|----------------8----8----|
------------------------------|----------------8----8----|
--8--8-8-8--8-8-8--8-8-8--8-8-|--8--8-8-8--8-8-6----6----|
--6--6-6-6--6-6-6--6-6-6--6-6-|--6--6-6-6--6-6-----------|


  E  S S E  S S E  S S E  S S    E  S S E  S S E  S S E  S S    
------------------------------|-------------------------------||
------------------------------|-------------------------------||
------------------------------|------------------------------*||
--5--5-5-5--5-5-5--5-5-5--5-5-|--5--5-5-5--5-5-5--5-5-5--5-5-*||
--3--3-3-3--3-3-3--3-3-3--3-3-|--3--3-3-3--3-3-3--3-3-3--3-3--||
------------------------------|-------------------------------||


  E  S S E  S S E  S S E  S S    E  S S E  S S E  S S E  S S  
------------------------------|------------------------------|
------------------------------|------------------------------|
------------------------------|------------------------------|
--5--5-5-5--5-5-5--5-5-5--5-5-|--5--5-5-5--5-5-5--5-5-5--5-5-|
--3--3-3-3--3-3-3--3-3-3--3-3-|--3--3-3-3--3-3-3--3-3-3--3-3-|
------------------------------|------------------------------|


  E  S S E  S S E  S S E  S S    E  S S E  S S E  S S E  S S  
------------------------------|------------------------------|
------------------------------|------------------------------|
------------------------------|------------------------------|
--5--5-5-5--5-5-5--5-5-5--5-5-|--5--5-5-5--5-5-5--5-5-5--5-5-|
--3--3-3-3--3-3-3--3-3-3--3-3-|--3--3-3-3--3-3-3--3-3-3--3-3-|
------------------------------|------------------------------|


  E  S S E  S S E  S S E  S S    E  S S E  S S E  S S E  S S  
------------------------------|------------------------------|
------------------------------|------------------------------|
------------------------------|------------------------------|
------------------------------|------------------------------|
--6--6-6-6--6-6-6--6-6-6--6-6-|--8--8-8-8--8-8-8--8-8-8--8-8-|
--4--4-4-4--4-4-4--4-4-4--4-4-|--6--6-6-6--6-6-6--6-6-6--6-6-|


  E  S S E  S S E  S S E  S S    E  S S E  S S E  S S E  S S  
------------------------------|------------------------------|
------------------------------|------------------------------|
------------------------------|------------------------------|
--5--5-5-5--5-5-5--5-5-5--5-5-|--5--5-5-5--5-5-5--5-5-5--5-5-|
--3--3-3-3--3-3-3--3-3-3--3-3-|--3--3-3-3--3-3-3--3-3-3--3-3-|
------------------------------|------------------------------|


  E  S S E  S S E  S S E  S S    E  S S E  S S E  S S E  S S  
------------------------------|------------------------------|
------------------------------|------------------------------|
------------------------------|------------------------------|
------------------------------|------------------------------|
--6--6-6-6--6-6-6--6-6-6--6-6-|--8--8-8-8--8-8-8--8-8-8--8-8-|
--4--4-4-4--4-4-4--4-4-4--4-4-|--6--6-6-6--6-6-6--6-6-6--6-6-|


  Q    E  E  E  Q.        Q    E  E  E  Q.        H        E  E  Q     
-----------------------|-----------------------|----------------------|
-----------------------|-----------------------|----------------------|
-----------------------|-----------------------|----------------------|
-------5-----5---------|-------5-----5---------|----------------------|
--3-------3-----3------|--3-------3-----3------|-----------6-----6----|
-----------------------|-----------------------|--4-----------4-------|


  H        E  E  Q       Q    E  E  E  Q.        Q    E  E  E  Q.      
----------------------|-----------------------|-----------------------|
----------------------|-----------------------|-----------------------|
----------------------|-----------------------|-----------------------|
----------------------|-----------------------|-----------------------|
-----------6-----6----|-------5-----5---------|-------5-----5---------|
--4-----------4-------|--3-------3-----3------|--3-------3-----3------|


  H        E  E  Q       H        E  E  Q       Q    E  E  E  Q.      
----------------------|----------------------|-----------------------|
----------------------|----------------------|-----------------------|
----------------------|----------------------|-----------------------|
-----------3-----3----|-----------3-----3----|-------5-----5---------|
--1-----------1-------|--1-----------1-------|--3-------3-----3------|
----------------------|----------------------|-----------------------|


  Q    E  E  E  Q.        H        E  E  Q       H        E  E  Q     
-----------------------|----------------------|----------------------|
-----------------------|----------------------|----------------------|
-----------------------|----------------------|----------------------|
-------5-----5---------|----------------------|----------------------|
--3-------3-----3------|-----------6-----6----|-----------6-----6----|
-----------------------|--4-----------4-------|--4-----------4-------|


  Q    E  E  E  Q.        Q    E  E  E  Q.        H        E  E  Q     
-----------------------|-----------------------|----------------------|
-----------------------|-----------------------|----------------------|
-----------------------|-----------------------|----------------------|
-----------------------|-----------------------|-----------3-----3----|
-------5-----5---------|-------5-----5---------|--1-----------1-------|
--3-------3-----3------|--3-------3-----3------|----------------------|


  H        E  E  Q       E  E  E  E  E  E  E  E     E  E  E  E  E  E  E  E   
----------------------|--------------------------|--------------------------|
----------------------|--------------------------|--------------------------|
----------------------|--------------------------|--------------------------|
-----------3-----3----|--8--------8--------8-----|--------------------------|
--1-----------1-------|--6--x--x--6--x--x--6--x--|--8--------8--------8-----|
----------------------|--------------------------|--6--x--x--6--x--x--6--x--|


  E  E  E  E  E  E  E  E     E  E  E  E  E  E  E  E   
--------------------------|--------------------------|
--------------------------|--------------------------|
--------------------------|--------------------------|
--------------------------|--------------------------|
--3--------3--------3-----|--3--------3--------3-----|
--1--x--x--1--x--x--1--x--|--1--x--x--1--x--x--1--x--|


  E  E  E  E  E  E  E  E     E  E  E  E  E  E  E  E   
--------------------------|--------------------------|
--------------------------|--------------------------|
--------------------------|--------------------------|
--------------------------|--------------------------|
--6--------6--------6-----|--8--------8--------8-----|
--4--x--x--4--x--x--4--x--|--6--x--x--6--x--x--6--x--|


  E  E  E  E  E  E  E  E     E  E  E  E  E  E  E  E   
--------------------------|--------------------------|
--------------------------|--------------------------|
--------------------------|--------------------------|
--5--------5--------5-----|--5--------5--------5-----|
--3--x--x--3--x--x--3--x--|--3--x--x--3--x--x--3--x--|
--------------------------|--------------------------|


  E  E  E  E  E  E  E  E     E  E  E  E  E  E  E  E   
--------------------------|--------------------------|
--------------------------|--------------------------|
--------------------------|--------------------------|
--8--------8--------8-----|--------------------------|
--6--x--x--6--x--x--6--x--|--8--------8--------8-----|
--------------------------|--6--x--x--6--x--x--6--x--|


  E  E  E  E  E  E  E  E     E  E  E  E  E  E  E  E   
--------------------------|--------------------------|
--------------------------|--------------------------|
--------------------------|--------------------------|
--------------------------|--------------------------|
--3--------3--------3-----|--3--------3--------3-----|
--1--x--x--1--x--x--1--x--|--1--x--x--1--x--x--1--x--|


  E  E  E  E  E  E  E  E     E  E  E  E  E  E  E  E     E  Q    E  Q    E  E   
--------------------------|--------------------------|------------------------|
--------------------------|--------------------------|------------------------|
--------------------------|--------------------------|------------------------|
--------------------------|--------------------------|--8-------8-------8-----|
--6--------6--------6-----|--8--------8--------8-----|--8-------8-------8-----|
--4--x--x--4--x--x--4--x--|--6--x--x--6--x--x--6--x--|--6-------6-------6-----|


  W                     E  S S E  S S E  S S E  S S    E  S S E  S S Q    Q     
-------------------||-------------------------------|--------------------------|
-------------------||-------------------------------|--------------------------|
-------------------||*------------------------------|----------------8----8----|
-------------------||*--5--5-5-5--5-5-5--5-5-5--5-5-|--5--5-5-5--5-5-8----8----|
-------------------||---3--3-3-3--3-3-3--3-3-3--3-3-|--3--3-3-3--3-3-6----6----|
-------------------||-------------------------------|--------------------------|


  E  S S E  S S E  S S E  S S    E  S S E  S S Q    Q     
------------------------------|--------------------------|
------------------------------|--------------------------|
------------------------------|----------------8----8----|
------------------------------|----------------8----8----|
--8--8-8-8--8-8-8--8-8-8--8-8-|--8--8-8-8--8-8-6----6----|
--6--6-6-6--6-6-6--6-6-6--6-6-|--6--6-6-6--6-6-----------|


  E  S S E  S S E  S S E  S S    E  S S E  S S Q    Q     
------------------------------|--------------------------|
------------------------------|--------------------------|
------------------------------|----------------8----8----|
------------------------------|----------------8----8----|
--8--8-8-8--8-8-8--8-8-8--8-8-|--8--8-8-8--8-8-6----6----|
--6--6-6-6--6-6-6--6-6-6--6-6-|--6--6-6-6--6-6-----------|


  E  S S E  S S E  S S E  S S    E  S S E  S S E  S S E  S S    
------------------------------|-------------------------------||
------------------------------|-------------------------------||
------------------------------|------------------------------*||
--5--5-5-5--5-5-5--5-5-5--5-5-|--5--5-5-5--5-5-5--5-5-5--5-5-*||
--3--3-3-3--3-3-3--3-3-3--3-3-|--3--3-3-3--3-3-3--3-3-3--3-3--||
------------------------------|-------------------------------||


  E  S S E  S S E  S S E  S S    E  S S E  S S E  S S E  S S  
------------------------------|------------------------------|
------------------------------|------------------------------|
------------------------------|------------------------------|
--5--5-5-5--5-5-5--5-5-5--5-5-|--5--5-5-5--5-5-5--5-5-5--5-5-|
--3--3-3-3--3-3-3--3-3-3--3-3-|--3--3-3-3--3-3-3--3-3-3--3-3-|
------------------------------|------------------------------|


  E  S S E  S S E  S S E  S S    E  S S E  S S Q    Q     
------------------------------|--------------------------|
------------------------------|--------------------------|
------------------------------|----------------8----8----|
--5--5-5-5--5-5-5--5-5-5--5-5-|--5--5-5-5--5-5-8----8----|
--3--3-3-3--3-3-3--3-3-3--3-3-|--3--3-3-3--3-3-6----6----|
------------------------------|--------------------------|


  E  S S E  S S E  S S E  S S    E  S S E  S S Q    Q     
------------------------------|--------------------------|
------------------------------|--------------------------|
------------------------------|----------------8----8----|
------------------------------|----------------8----8----|
--8--8-8-8--8-8-8--8-8-8--8-8-|--8--8-8-8--8-8-6----6----|
--6--6-6-6--6-6-6--6-6-6--6-6-|--6--6-6-6--6-6-----------|


  E  S S E  S S E  S S E  S S    E  S S E  S S Q    Q     
------------------------------|--------------------------|
------------------------------|--------------------------|
------------------------------|----------------8----8----|
------------------------------|----------------8----8----|
--8--8-8-8--8-8-8--8-8-8--8-8-|--8--8-8-8--8-8-6----6----|
--6--6-6-6--6-6-6--6-6-6--6-6-|--6--6-6-6--6-6-----------|


  E  S S E  S S E  S S E  S S    E  S S E  S S E  S S E  S S  
------------------------------|------------------------------|
------------------------------|------------------------------|
------------------------------|------------------------------|
--5--5-5-5--5-5-5--5-5-5--5-5-|--5--5-5-5--5-5-5--5-5-5--5-5-|
--3--3-3-3--3-3-3--3-3-3--3-3-|--3--3-3-3--3-3-3--3-3-3--3-3-|
------------------------------|------------------------------|


  E  S S E  S S E  S S E  S S    E  S S E  S S Q    Q     
------------------------------|--------------------------|
------------------------------|--------------------------|
------------------------------|----------------8----8----|
--5--5-5-5--5-5-5--5-5-5--5-5-|--5--5-5-5--5-5-8----8----|
--3--3-3-3--3-3-3--3-3-3--3-3-|--3--3-3-3--3-3-6----6----|
------------------------------|--------------------------|


  E  S S E  S S E  S S E  S S    E  S S E  S S Q    Q     
------------------------------|--------------------------|
------------------------------|--------------------------|
------------------------------|----------------8----8----|
------------------------------|----------------8----8----|
--8--8-8-8--8-8-8--8-8-8--8-8-|--8--8-8-8--8-8-6----6----|
--6--6-6-6--6-6-6--6-6-6--6-6-|--6--6-6-6--6-6-----------|


  E  S S E  S S E  S S E  S S    E  S S E  S S Q    Q       Q    H.            
------------------------------|--------------------------|--------------------|
------------------------------|--------------------------|--------------------|
------------------------------|----------------8----8----|--5-----------------|
------------------------------|----------------8----8----|--5-----------------|
--8--8-8-8--8-8-8--8-8-8--8-8-|--8--8-8-8--8-8-6----6----|--3-----------------|
--6--6-6-6--6-6-6--6-6-6--6-6-|--6--6-6-6--6-6-----------|--------------------|


-----|-----|-----|-----|-----|-----|-----|-----|-----|-----|-----|
-----|-----|-----|-----|-----|-----|-----|-----|-----|-----|-----|
-----|-----|-----|-----|-----|-----|-----|-----|-----|-----|-----|
-----|-----|-----|-----|-----|-----|-----|-----|-----|-----|-----|
-----|-----|-----|-----|-----|-----|-----|-----|-----|-----|-----|
-----|-----|-----|-----|-----|-----|-----|-----|-----|-----|-----|


    E  S S E  S S E  S S E  S S    E  S S E  S S Q    Q     
|-------------------------------|--------------------------|
|-------------------------------|--------------------------|
|*------------------------------|----------------8----8----|
|*--5--5-5-5--5-5-5--5-5-5--5-5-|--5--5-5-5--5-5-8----8----|
|---3--3-3-3--3-3-3--3-3-3--3-3-|--3--3-3-3--3-3-6----6----|
|-------------------------------|--------------------------|


  E  S S E  S S E  S S E  S S    E  S S E  S S Q    Q     
------------------------------|--------------------------|
------------------------------|--------------------------|
------------------------------|----------------8----8----|
------------------------------|----------------8----8----|
--8--8-8-8--8-8-8--8-8-8--8-8-|--8--8-8-8--8-8-6----6----|
--6--6-6-6--6-6-6--6-6-6--6-6-|--6--6-6-6--6-6-----------|


  E  S S E  S S E  S S E  S S    E  S S E  S S Q    Q     
------------------------------|--------------------------|
------------------------------|--------------------------|
------------------------------|----------------8----8----|
------------------------------|----------------8----8----|
--8--8-8-8--8-8-8--8-8-8--8-8-|--8--8-8-8--8-8-6----6----|
--6--6-6-6--6-6-6--6-6-6--6-6-|--6--6-6-6--6-6-----------|


  E  S S E  S S E  S S E  S S    E  S S E  S S E  S S E  S S    
------------------------------|-------------------------------||
------------------------------|-------------------------------||
------------------------------|------------------------------*||
--5--5-5-5--5-5-5--5-5-5--5-5-|--5--5-5-5--5-5-5--5-5-5--5-5-*||
--3--3-3-3--3-3-3--3-3-3--3-3-|--3--3-3-3--3-3-3--3-3-3--3-3--||
------------------------------|-------------------------------||


  E  S S E  S S E  S S E  S S    E  S S E  S S E  S S E  S S  
------------------------------|------------------------------|
------------------------------|------------------------------|
------------------------------|------------------------------|
--5--5-5-5--5-5-5--5-5-5--5-5-|--5--5-5-5--5-5-5--5-5-5--5-5-|
--3--3-3-3--3-3-3--3-3-3--3-3-|--3--3-3-3--3-3-3--3-3-3--3-3-|
------------------------------|------------------------------|


    E  S S E  S S E  S S E  S S    E  S S E  S S Q    Q     
|-------------------------------|--------------------------|
|-------------------------------|--------------------------|
|*------------------------------|----------------8----8----|
|*--5--5-5-5--5-5-5--5-5-5--5-5-|--5--5-5-5--5-5-8----8----|
|---3--3-3-3--3-3-3--3-3-3--3-3-|--3--3-3-3--3-3-6----6----|
|-------------------------------|--------------------------|


  E  S S E  S S E  S S E  S S    E  S S E  S S Q    Q     
------------------------------|--------------------------|
------------------------------|--------------------------|
------------------------------|----------------8----8----|
------------------------------|----------------8----8----|
--8--8-8-8--8-8-8--8-8-8--8-8-|--8--8-8-8--8-8-6----6----|
--6--6-6-6--6-6-6--6-6-6--6-6-|--6--6-6-6--6-6-----------|


  E  S S E  S S E  S S E  S S    E  S S E  S S Q    Q     
------------------------------|--------------------------|
------------------------------|--------------------------|
------------------------------|----------------8----8----|
------------------------------|----------------8----8----|
--8--8-8-8--8-8-8--8-8-8--8-8-|--8--8-8-8--8-8-6----6----|
--6--6-6-6--6-6-6--6-6-6--6-6-|--6--6-6-6--6-6-----------|


  E  S S E  S S E  S S E  S S    E  S S E  S S E  S S E  S S    
------------------------------|-------------------------------||
------------------------------|-------------------------------||
------------------------------|------------------------------*||
--5--5-5-5--5-5-5--5-5-5--5-5-|--5--5-5-5--5-5-5--5-5-5--5-5-*||
--3--3-3-3--3-3-3--3-3-3--3-3-|--3--3-3-3--3-3-3--3-3-3--3-3--||
------------------------------|-------------------------------||


  E  S S E  S S E  S S E  S S    E  S S E  S S E  S S E  S S  
------------------------------|------------------------------|
------------------------------|------------------------------|
------------------------------|------------------------------|
--5--5-5-5--5-5-5--5-5-5--5-5-|--5--5-5-5--5-5-5--5-5-5--5-5-|
--3--3-3-3--3-3-3--3-3-3--3-3-|--3--3-3-3--3-3-3--3-3-3--3-3-|
------------------------------|------------------------------|


  E  S S E  S S E  S S E  S S    E  S S E  S S Q    Q     
------------------------------|--------------------------|
------------------------------|--------------------------|
------------------------------|----------------8----8----|
--5--5-5-5--5-5-5--5-5-5--5-5-|--5--5-5-5--5-5-8----8----|
--3--3-3-3--3-3-3--3-3-3--3-3-|--3--3-3-3--3-3-6----6----|
------------------------------|--------------------------|


  E  S S E  S S E  S S E  S S    E  S S E  S S Q    Q     
------------------------------|--------------------------|
------------------------------|--------------------------|
------------------------------|----------------8----8----|
------------------------------|----------------8----8----|
--8--8-8-8--8-8-8--8-8-8--8-8-|--8--8-8-8--8-8-6----6----|
--6--6-6-6--6-6-6--6-6-6--6-6-|--6--6-6-6--6-6-----------|


  E  S S E  S S E  S S E  S S   
------------------------------||
------------------------------||
------------------------------||
------------------------------||
--8--8-8-8--8-8-8--8-8-8--8-8-||
--6--6-6-6--6-6-6--6-6-6--6-6-||




                                
Keyboard


     W                   W                   W                 
E||-------------------|-------------------|-------------------|
B||-------------------|-------------------|-------------------|
G||--5----------------|--L----------------|-------------------|
D||--5----------------|--L----------------|--6----------------|
A||--3----------------|--L----------------|--6----------------|
E||-------------------|-------------------|--4----------------|


  W                   W                   W                   W                 
-------------------|-------------------|-------------------|-------------------|
-------------------|-------------------|-------------------|-------------------|
-------------------|--5----------------|--L----------------|-------------------|
--8----------------|--5----------------|--L----------------|--6----------------|
--8----------------|--3----------------|--L----------------|--6----------------|
--6----------------|-------------------|-------------------|--4----------------|


  W                   W                   W                   W                 
-------------------|-------------------|-------------------|-------------------|
-------------------|-------------------|-------------------|-------------------|
-------------------|--5----------------|--L----------------|-------------------|
--8----------------|--5----------------|--L----------------|--6----------------|
--8----------------|--3----------------|--L----------------|--6----------------|
--6----------------|-------------------|-------------------|--4----------------|


  W                   W                   W                   W                 
-------------------|-------------------|-------------------|-------------------|
-------------------|-------------------|-------------------|-------------------|
-------------------|-------------------|-------------------|--3----------------|
--L----------------|--5----------------|--L----------------|--3----------------|
--L----------------|--5----------------|--L----------------|--1----------------|
--L----------------|--3----------------|--L----------------|-------------------|


  W                   W                   W                   W                 
-------------------|-------------------|-------------------|-------------------|
-------------------|-------------------|-------------------|-------------------|
--L----------------|--5----------------|--L----------------|-------------------|
--L----------------|--5----------------|--L----------------|--6----------------|
--L----------------|--3----------------|--L----------------|--6----------------|
-------------------|-------------------|-------------------|--4----------------|


  W                   W                   W                   W                 
-------------------|-------------------|-------------------|-------------------|
-------------------|-------------------|-------------------|-------------------|
-------------------|-------------------|-------------------|--3----------------|
--L----------------|--5----------------|--L----------------|--3----------------|
--L----------------|--5----------------|--L----------------|--1----------------|
--L----------------|--3----------------|--L----------------|-------------------|


  W                                                                         
-------------------|-------|-------|-------|-------|-------|-------|-------|
-------------------|-------|-------|-------|-------|-------|-------|-------|
--L----------------|-------|-------|-------|-------|-------|-------|-------|
--L----------------|-------|-------|-------|-------|-------|-------|-------|
--L----------------|-------|-------|-------|-------|-------|-------|-------|
-------------------|-------|-------|-------|-------|-------|-------|-------|


-------|-------|-------|-------|-------|-------|-------|-------|-------|
-------|-------|-------|-------|-------|-------|-------|-------|-------|
-------|-------|-------|-------|-------|-------|-------|-------|-------|
-------|-------|-------|-------|-------|-------|-------|-------|-------|
-------|-------|-------|-------|-------|-------|-------|-------|-------|
-------|-------|-------|-------|-------|-------|-------|-------|-------|


    W                   H        H           W                 
|--------------------|--------------------|-------------------|
|--------------------|--------------------|-------------------|
|*--5----------------|--L--------8--------|-------------------|
|*--5----------------|--L--------8--------|--8----------------|
|---3----------------|--L--------6--------|--8----------------|
|--------------------|--------------------|--6----------------|


  H        H           W                   H        H         
--------------------|-------------------|--------------------|
--------------------|-------------------|--------------------|
-----------8--------|-------------------|-----------8--------|
--L--------8--------|--8----------------|--L--------8--------|
--L--------6--------|--8----------------|--L--------6--------|
--L-----------------|--6----------------|--L-----------------|


  W                   W                     W                 
-------------------|--------------------||-------------------|
-------------------|--------------------||-------------------|
--5----------------|--L----------------*||--5----------------|
--5----------------|--L----------------*||--5----------------|
--3----------------|--L-----------------||--3----------------|
-------------------|--------------------||-------------------|


  W                   W                   W                   W                 
-------------------|-------------------|-------------------|-------------------|
-------------------|-------------------|-------------------|-------------------|
--L----------------|--5----------------|--L----------------|-------------------|
--L----------------|--5----------------|--L----------------|--6----------------|
--L----------------|--3----------------|--L----------------|--6----------------|
-------------------|-------------------|-------------------|--4----------------|


  W                   W                   W                   W                 
-------------------|-------------------|-------------------|-------------------|
-------------------|-------------------|-------------------|-------------------|
-------------------|--5----------------|--L----------------|-------------------|
--8----------------|--5----------------|--L----------------|--6----------------|
--8----------------|--3----------------|--L----------------|--6----------------|
--6----------------|-------------------|-------------------|--4----------------|


  W                   W                   W                   W                 
-------------------|-------------------|-------------------|-------------------|
-------------------|-------------------|-------------------|-------------------|
-------------------|--5----------------|--L----------------|-------------------|
--8----------------|--5----------------|--L----------------|--6----------------|
--8----------------|--3----------------|--L----------------|--6----------------|
--6----------------|-------------------|-------------------|--4----------------|


  W                   W                   W                   W                 
-------------------|-------------------|-------------------|-------------------|
-------------------|-------------------|-------------------|-------------------|
-------------------|-------------------|-------------------|--3----------------|
--L----------------|--5----------------|--L----------------|--3----------------|
--L----------------|--5----------------|--L----------------|--1----------------|
--L----------------|--3----------------|--L----------------|-------------------|


  W                   W                   W                   W                 
-------------------|-------------------|-------------------|-------------------|
-------------------|-------------------|-------------------|-------------------|
--L----------------|--5----------------|--L----------------|-------------------|
--L----------------|--5----------------|--L----------------|--6----------------|
--L----------------|--3----------------|--L----------------|--6----------------|
-------------------|-------------------|-------------------|--4----------------|


  W                   W                   W                   W                 
-------------------|-------------------|-------------------|-------------------|
-------------------|-------------------|-------------------|-------------------|
-------------------|-------------------|-------------------|--3----------------|
--L----------------|--5----------------|--L----------------|--3----------------|
--L----------------|--5----------------|--L----------------|--1----------------|
--L----------------|--3----------------|--L----------------|-------------------|


  W                                                                         
-------------------|-------|-------|-------|-------|-------|-------|-------|
-------------------|-------|-------|-------|-------|-------|-------|-------|
--L----------------|-------|-------|-------|-------|-------|-------|-------|
--L----------------|-------|-------|-------|-------|-------|-------|-------|
--L----------------|-------|-------|-------|-------|-------|-------|-------|
-------------------|-------|-------|-------|-------|-------|-------|-------|


-------|-------|-------|-------|-------|-------|-------|-------|-------|
-------|-------|-------|-------|-------|-------|-------|-------|-------|
-------|-------|-------|-------|-------|-------|-------|-------|-------|
-------|-------|-------|-------|-------|-------|-------|-------|-------|
-------|-------|-------|-------|-------|-------|-------|-------|-------|
-------|-------|-------|-------|-------|-------|-------|-------|-------|


    W                   H        H           W                 
|--------------------|--------------------|-------------------|
|--------------------|--------------------|-------------------|
|*--5----------------|--L--------8--------|-------------------|
|*--5----------------|--L--------8--------|--8----------------|
|---3----------------|--L--------6--------|--8----------------|
|--------------------|--------------------|--6----------------|


  H        H           W                   H        H         
--------------------|-------------------|--------------------|
--------------------|-------------------|--------------------|
-----------8--------|-------------------|-----------8--------|
--L--------8--------|--8----------------|--L--------8--------|
--L--------6--------|--8----------------|--L--------6--------|
--L-----------------|--6----------------|--L-----------------|


  W                   W                     W                 
-------------------|--------------------||-------------------|
-------------------|--------------------||-------------------|
--5----------------|--L----------------*||--5----------------|
--5----------------|--L----------------*||--5----------------|
--3----------------|--L-----------------||--3----------------|
-------------------|--------------------||-------------------|


  W                                                                         
-------------------|-------|-------|-------|-------|-------|-------|-------|
-------------------|-------|-------|-------|-------|-------|-------|-------|
--L----------------|-------|-------|-------|-------|-------|-------|-------|
--L----------------|-------|-------|-------|-------|-------|-------|-------|
--L----------------|-------|-------|-------|-------|-----
Добавлено: 13.03.2012
Другие материалы по этой песне:
  • Аккорды и текст

Страница создана 13.03.2012
http://primanota.ru/metal-force/hail-to-majesty-chords.htm
Привет, Гость.
Предлагаем пройти революционный курс по гитаре.
Подарок от PrimaNota.Ru, забирай!