PrimaNota.ru - самый крупный в мире бесплатный архив песенных текстов, аккордов, табулатур и нот


Metal Days - Revenge (album) - таба, видео

Регистрация Запомнить меня
Войти через:  Facebook Google Twitter Vk Yandex Mail.ru

Metal Days - Revenge (album) - таба, видео

Печатать
Просмотров: 119
-------------------------------------------------------------------------------
                             Revenge by Metal days
-------------------------------------------------------------------------------
Tabbed by:Nathan
E-mail:

Tuning:Drop C

e|-----------------------------------------------------------------------------------|
B|-----------------------------------------------------------------------------------|
G|-----------------------------------------------------------------------------------|
D|-------7-7-----3-3-3-3-3-3-3-3-3-2-2-----------------------------------------------|
A|-0-0-0-5-5-0-0-3-3-3-3-3-3-3-3-3-1-1-0-0-------------------------------------------|
E|-0-0-0-----0-0-3-3-3-3-3-3-3-3-3-----0-0-------------------------------------------|

e|--------------------------------------------------------------------------------------|
B|--------------------------------------------------------------------------------------|
G|--------------------------------------------------------------------------------------|
D|-5-5-5-5-5-5-5-5-5--------------------------------------------------------------------|
A|-5-5-5-5-5-5-5-5-5--------------------------------------------------------------------|
E|-5-5-5-5-5-5-5-5-5--------------------------------------------------------------------|


************************************

| /   slide up
| \   slide down
| h   hammer-on
| p   pull-off
| ~   vibrato
| +   harmonic
| x   Mute note
| b   Bend
| pb  Pre-bend
| br  Bend release
| pbr Pre-bend release
| brb Bend release bend

************************************
Добавлено: 16.08.2015
Другие материалы по этой песне:
  • Аккорды и текст

Страница создана 16.08.2015
http://primanota.ru/metal-days/revenge-album-chords.htm
Привет, Гость.
Предлагаем пройти революционный курс по гитаре.
Подарок от PrimaNota.Ru, забирай!