PrimaNota.ru - самый крупный в мире бесплатный архив песенных текстов, аккордов, табулатур и нот


Metal Church - Psycho - текст песни, таба, видео

Регистрация Запомнить меня
Войти через:  Facebook Google Twitter Vk Yandex Mail.ru

Metal Church - Psycho - текст песни, таба, видео

Печатать
Просмотров: 143
Riff 1A twice
e-----------------------------------------------------|
B-----------------------------------------------------|
G-------------------------------------------------3---|
D-------------------------------------------------1---|
A-3-4-6--3-4-6--3-4-6--3-----3-4-6--3-4-6--3-4-6------|
E-1-2-4--1-2-4--1-2-4--1-----1-2-4--1-2-4--1-2-4------|

Riff 1B twice

e-----------------------------------------------------------------|
B-----------------------------------------------------------------|
G-----------------------------------------------------------------|
D-----------------------------------------------------------------|
A-5-6-8--5-6-8--5-6-8-------------5-6-8--5-6-8--5-6-8-------------|
E-3-4-6--3-4-6--3-4-6--33333333---3-4-6--3-4-6--3-4-6--11111111---|

Riff 2 once

E--------------------------------------------|
B--------------------------------------------|
G---------------3--5-------------------------|
D---------------1--3------------------6--5---|
A-333333331333----------111111111111--4--3---|
E--------------------------------------------|


Riff 1B once
Riff 2 once
Riff 1B twice

Riff 3 once
G-2-2----3-3----4-4----5-5----5-5--------------------------|
D-0-0----1-1----2-2----3-3----3-3---3-3-----5-4-3--5-4-3---|
A-----------------------------------1-1-----3-2-1--3-2-1---|

First part of Riff 1A
Riff 1B twice
Riff 2 once
Riff 1B once
Riff 2 once
Riff 1B once
Riff 3 once
Riff 1A once

Riff 1A ending


E--------------------------------------|
B--------------------------------------|
G--------------------------------------|
D-666666666666--6----555555555555--3---|
A-444444444444--4----333333333333--1---|
E--------------------------------------|

Riff 4 4x

E--------------------------------------------------------------------|
B--------------------------------------------------------------------|
G--------------------------------------------------------------------|
D------5----------------5----------------5-----------------3--5--3---|
A---------4----------------4----------------4--------------1--3--1---|
E-3-3--------3---2-3-3--------3---2-3-3--------3---2-3-3-------------|

Riff 5 4x

E----------------------------|
B----------------------------|
G----------------------------|
D----------------------------|
A-5-5-----8-8---7-7---6-6----|
E-3-3-----6-6---5-5---4-4----|
Добавлено: 12.03.2012
Другие материалы по этой песне:
  • Аккорды и текст

Страница создана 06.03.2012
http://primanota.ru/metal-church/psycho-chords.htm
Привет, Гость.
Предлагаем пройти революционный курс по гитаре.
Подарок от PrimaNota.Ru, забирай!