PrimaNota.ru - самый крупный в мире бесплатный архив песенных текстов, аккордов, табулатур и нот


Merle Travis - Chattanogie Shoe Shine - аккорды и текст, таба, видео

Регистрация Запомнить меня
Войти через:  Facebook Google Twitter Vk Yandex Mail.ru

Merle Travis - Chattanogie Shoe Shine - аккорды и текст, таба, видео

Печатать
Просмотров: 85
Chattanogie Shoe Shine
Merle Travis
		   Chattanogie Shoe Shine Boy
  Words & Music By: Jack Stapp & Harry Stone
  Arranged By:  Bill Taylor


       E
  ||---------------------------------------------------------|---------
  ||---0--0-----------------------0--0--2--0--------3--0-----|---------
  ||---------------------1-----------------------------------|--1------
  ||---------2--------2-----------------2-----------------2--|---------
  ||------------------------2-----------------------2--------|-----2---
  ||---0--------------0-----------0--------------------------|--0------



  --------------------------------------------|---------------
  -----------------0--0--2--0--------3--0-----|---------------
  -----1--------------------------------------|--1------------
  --2--------------------2-----------------2--|-----2---------
  --------2-----------------------------------|---------------
  --0--------------0-----------------0--------|--0------------


         A
  ----------------------0--2-----------3--2-----|--0--------------------
  ----------2-----------------------------------|-----2-----------------
  -------2--------------------2--------------2--|--------2--------------
  -------------2--------------------------------|-----------------------
  -------0--------------0--------------0--------|--0--------------------
  ----------------------------------------------|-----------------------


   E                                                         B7
  -0--0-----------0--------------------|--------------------------------
  -------------------0--2--------------|-----0--2--0---------2--0--2--0-
  -------1--------------1--------1-----|--------------------------------
  ----------------------------------2--|--------2------------------1----
  -------------------------------------|---------------------2----------
  -0--------------0--------------0-----|--0-----------------------------



  ---------1-----------------------|-----0--------------0---------------
  ------------0--------------0-----|--2--------------2------------------
  ---------------2--------------2--|--------2--------------2------------
  ---------------------------------|------------------------------------
  ---------2-----------------------|--2--------------2------------------
  ------------------------2--------|------------------------------------


                        E            A            E            B7
  3-----------2-----|---0-------------------------0---------------------
  ------------------|----------------2-------------------------0--------
  ---2-----------2--|------1------------2------------1------------------
  ------------------|---------------------------------------------1-----
  2-----------2-----|----------------0-------------------------2--------
  ------------------|---0-------------------------0---------------------


      E
  |---------------------------------------|--------------------------
  |---------------0--0--2--0-----3--0-----|--------------------------
  |------1--------------------------------|--1-----------------1-----
  |---2-----------------2--------------2--|-----------------2--------
  |---------2--------------------2--------|-----2-----------------2--
  |---0-----------0-----------------------|--0--------------0--------


                                                         A
  ------------------------------------|---------------------------------
  ---------0--0--2--0--------3--0-----|---------------------2-----------
  ------------------------------------|--1---------------2--------------
  ---------------2-----------------2--|-----2------------------2--------
  ------------------------------------|------------------0--------------
  ---------0-----------------0--------|--0------------------------------


                                                E
  ---0--2-----------3--2-----|--0---------------0--0-----------0--------
  ---------------------------|-----2------------------------------0--2--
  ---------2--------------2--|--------2---------------1--------------1--
  ---------------------------|------------------------------------------
  ---0--------------0--------|--0---------------------------------------
  ---------------------------|------------------0--------------0--------


                                       B7
  ---------------|---------------------------------------1--------------
  ---------------|-----0--2--0---------2--0--2--0-----------0-----------
  ---------1-----|---------------------------------------------2--------
  ------------2--|--------2------------------1--------------------------
  ---------------|---------------------2-----------------2--------------
  ---------0-----|--0---------------------------------------------------




  ------------|-----0--------------0-----------3-----------2-----|------
  ------0-----|--2--------------2--------------------------------|------
  ---------2--|--------2--------------2-----------2-----------2--|------
  ------------|--------------------------------------------------|------
  ------------|--2--------------2--------------2-----------2-----|------
  ---2--------|--------------------------------------------------|------


   E            A            E                        A
  -0-------------------------0-----------0--0-----|---0--0--------------
  --------------2---------------------------------|---------------------
  ----1------------2------------1--------------1--|---------2-----------
  ------------------------------------------------|---------------------
  --------------0---------------------------------|---0-----------------
  -0-------------------------0-----------0--------|---------------------


                                             E
  ---------------0--0-----------0--------|------------------------------
  ---2-----------------------------2-----|---0--0-----------2--2--------
  2--------------------2--------------2--|------------------------------
  ------2--------------------------------|---------2--------------2-----
  0--------------0--------------0--------|------------------------------
  ---------------------------------------|---0--------------0-----------


                                F#
  ------------------0--0-----|---0--0--------------------------0--0-----
  ---------------------------|---------------------2--------------------
  ------1-----------------1--|---------3--------3--------------------3--
  ---------2-----------------|------------------------4-----------------
  ---------------------------|---4--------------4--------------4--------
  ------0-----------0--------|------------------------------------------


                       B7
  ---------0--0-----|---2-----------------------------------------------
  ------------------|------0--0--------0--0--0--------0--0--0--0--------
  ---------------3--|---------2-----------------------------------------
  ------------------|------------------------1--------------1-----------
  ---------4--------|---2--------------2--------------2-----------------
  ------------------|---------------------------------------------------


                 E
  ------------|--------------------------------------|-----------
  ---0--0-----|--------------0--0--2--0-----3--0-----|-----------
  ------------|-----1--------------------------------|--1--------
  ---------1--|--2-----------------2--------------2--|-----------
  ---2--------|--------2--------------------2--------|-----2-----
  ------------|--0-----------0-----------------------|--0--------



  ---------------------------------------------------|------------------
  ------------------------0--0--2--0--------3--0-----|------------------
  ------------1--------------------------------------|--1---------------
  ---------2--------------------2-----------------2--|-----2------------
  ---------------2-----------------------------------|------------------
  ---------0--------------0-----------------0--------|--0---------------


      A                                                         E
  -------------------0--2-----------3--2-----|--0---------------0--0----
  -------2-----------------------------------|-----2--------------------
  ----2--------------------2--------------2--|--------2--------------1--
  ----------2--------------------------------|--------------------------
  ----0--------------0--------------0--------|--0-----------------------
  -------------------------------------------|------------------0-------


                                                     B7
  ---------0--------------------|---------------------------------------
  ------------0--2--------------|-----0--2--0---------2--0--2--0--------
  ---------------1--------1-----|---------------------------------------
  ---------------------------2--|--------2------------------1-----------
  ------------------------------|---------------------2-----------------
  ---------0--------------0-----|--0------------------------------------



  ---1-----------------------|------0--------------0------------3-------
  ------0--------------0-----|---2--------------2-----------------------
  ---------2--------------2--|---------2--------------2------------2----
  ---------------------------|------------------------------------------
  ---2-----------------------|---2--------------2---------------2-------
  ------------------2--------|------------------------------------------


                  E            A            E                A
  ------2-----|---0------------0------------0---|---------------0-----0
  ------------|-----------------------------0---|----0-------2-----2---
  ---------2--|------1------------2---------1---|------------------2---
  ------------|---------------------------------|----------------------
  ------2-----|----------------0----------------|------------0---------
  ------------|---0-------------------------0---|----------------------


    B7                     E        A        E
  --3----------2------|----0---|----0---|----0---|
  --------------------|----0---|----0---|----0---|
  -----2----------2---|----1---|----2---|----1---|
  --------------------|--------|--------|--------|
  --2----------2------|--------|----0---|--------|
  --------------------|----0---|--------|----0---|     
Добавлено: 21.10.2013
Другие материалы по этой песне:
  • Аккорды и текст

Страница создана 13.06.2012
http://primanota.ru/merle-travis/chattanogie-shoe-shine-chords.htm
Привет, Гость.
Предлагаем пройти революционный курс по гитаре.
Подарок от PrimaNota.Ru, забирай!