PrimaNota.ru - самый крупный в мире бесплатный архив песенных текстов, аккордов, табулатур и нот


Merle Haggard - Our Paths May Never Cross - текст песни, бас-таба, видео

Регистрация Запомнить меня
Войти через:  Facebook Google Twitter Vk Yandex Mail.ru

Merle Haggard - Our Paths May Never Cross - текст песни, бас-таба, видео

Печатать
Просмотров: 35
Уроки эстрадного вокала в Санкт-Петербурге
Tabbed by: 6METAL6BASSIST6
E-mail: petergriffinav@gmail.com

Tuning: EADG

G|------------------------------------------------------------------------------------------------|
D|------------------------------------------------------------------------------------------------|
A|------------------------------------------------------------------------------------------------|
E|------------------------------------------------------------------------------------------------|

G|----------------------------------------------------------------------------------------11\-----|
D|------------------------------------------------------------------------4-/-9-------------------|
A|------------------------------------------------------------------------------------------------|
E|------------------------------------------------------------------------------------------------|

G|------------------------------------------------------------------------------------------------|
D|------------------------------------------------------------------------------------------------|
A|7-----------------------8-----------------------9-------------------/---11----------------------|
E|------------------------------------------------------------------------------------------------|

G|------------------------------------------------------------------------------------------------|
D|11----------------------------------------------------------------------------------------------|
A|------------------------------------------------9-----------------------------------------------|
E|------------------------------------------------------------------------------------------------|

0:26

G|------------------------------------------------------------------------------------------------|
D|9-----------------------------------------------6-----------------------9-----------------------|
A|------------------------6-----------------------------------------------------------------------|
E|------------------------------------------------------------------------------------------------|

G|------------------------------------------------------------------------------------------------|
D|------------------------------------------------9-----------------------9-----------------------|
A|7-----------------------9-----------------------------------------------------------6-----------|
E|------------------------------------------------------------------------------------------------|

G|------------------------------------------------------------------------------------------------|
D|------------------------------------------------------------------------------------------------|
A|7-----------------------8-----------------------9-----------------------11----------------------|
E|------------------------------------------------------------------------------------------------|

G|------------------------------------------------------------------------------------------------|
D|11----------------------11----------------------------------------------------------------------|
A|--------------------11--------------------------9-----------------------9-----------------------|
E|------------------------------------------------------------------------------------------------|

0:52

G|------------------------------------------------------------------------------------------------|
D|9-----------------------------------------------6-----------------------9-----------------------|
A|------------------------6-----------------------------------------------------------6-----------|
E|------------------------------------------------------------------------------------------------|

G|------------------------------------------------------------------------------------------------|
D|------------------------------------------------9-----------------------9-----------------------|
A|7-----------------------9-----------------------------------------------------------9-----------|
E|------------------------------------------------------------------------------------------------|

G|------------------------------------------------------------------------------------------------|
D|------------------------------------------------------------------------------------------------|
A|7-----------------------8-----------------------9-----------------------11----------------------|
E|------------------------------------------------------------------------------------------------|

G|------------------------------------------------------------------------------------------------|
D|11----------------------------------------------------------------------------------------------|
A|------------------------9-----------------------9-------------------------------6---7-------8---|
E|------------------------------------------------------------------------------------------------|

1:18

G|---------------------------------------------------------------------------------------------------|
D|------------------------11----------11/13------\---------------------------11----------------------|
A|9-------------------9------------------------------9-------------------9---------------9-----------|
E|---------------------------------------------------------------------------------------------------|

G|------------------------------------------------------------------------------------------------|
D|------------------------11----------------------------------------------11----------10-/11------|
A|11------------------11--------------11----------9-------------------9---------------------------|
E|------------------------------------------------------------------------------------------------|

G|------------------------------------------------------------------------------------------------|
D|------------------------11----------------------13----------------------8-----------------------|
A|9-------------------9---------------9-------------------------------6---------------6-----------|
E|------------------------------------------------------------------------------------------------|

G|------------------------------------------------------------------------------------------------|
D|6-----------------------------------------------------------------------------------------------|
A|--------------------6---4-------------------/---9-----------------------------------9---\-------|
E|------------------------------------------------------------------------------------------------|

1:44

G|------------------------------------------------------------------------------------------------|
D|------------------------------------------------6-----------------------9-----------------------|
A|2-------------------/---6-----------------------------------------------------------6-----------|
E|------------------------------------------------------------------------------------------------|

G|------------------------------------------------------------------------------------------------|
D|------------------------------------------------9-----------------------9-----------------------|
A|7-----------------------9-----------------------------------------------------------9-----------|
E|------------------------------------------------------------------------------------------------|

G|------------------------------------------------------------------------------------------------|
D|------------------------------------------------------------------------------------------------|
A|7-----------------------8-----------------------9-----------------------11----------------------|
E|------------------------------------------------------------------------------------------------|

G|------------------------------------------------|
D|11----------------------------------------------|
A|------------------------9-----------------------|
E|------------------------------------------------|

2:08

G|------------------------------------------------------------------------------------------------|
D|9-----------------------------------------------6-------------------6---9-----------------------|
A|--------------------9---6-------------------6-----------------------------------9---6-----------|
E|------------------------------------------------------------------------------------------------|

G|------------------------------------------------------------------------------------------------|
D|------------------------------------------------9-----------------------9-----------------------|
A|7-------------------7---9-------------------9-----------------------9-----------9-----------6---|
E|------------------------------------------------------------------------------------------------|

G|------------------------------------------------------------------------------------------------|
D|------------------------------------------------------------------------------------------------|
A|7-------------------7---8-------------------8---9-------------------10--11----------------------|
E|------------------------------------------------------------------------------------------------|

G|------------------------------------------------------------------------------------------------|
D|11----------------------------------------------------------------------------------------------|
A|----------------------------9-------------------------------------------------------------------|
E|------------------------------------------------------------------------------------------------|

G|------------------------------------------------------------------------------------------------|
D|------------------------------------------------------------------------------------------------|
A|--------------------------------------------9-----------9---\-----------------------------------|
E|----------------------------------------------------------------------------7-------------------|
Добавлено: 14.06.2017
Другие материалы по этой песне:
  • Аккорды и текст

Страница создана 17.12.2013
http://primanota.ru/merle-haggard/our-paths-may-never-cross-chords.htm
Привет, Гость.
Предлагаем пройти революционный курс по гитаре.
Подарок от PrimaNota.Ru, забирай!