PrimaNota.ru - самый крупный в мире бесплатный архив песенных текстов, аккордов, табулатур и нот


Mercyme - Times Running Out On Me - таба, видео

Регистрация Запомнить меня
Войти через:  Facebook Google Twitter Vk Yandex Mail.ru

Mercyme - Times Running Out On Me - таба, видео

Печатать
Просмотров: 58
-------------------------------------------------------------------------------
                             Time's Running Out On Me - MercyMe
-------------------------------------------------------------------------------
Tabbed By: Dannyboy1024

Tuning: Standard

Lead Guitar
Main Lick
e|---------------------------------------------|
B|----------------------7---5-7-5--------------|
G|------6-4-6-4-3-----------------6-4-3--------|
D|------------------4-------------------4------|
A|---------------------------------------------|
E|---------------------------------------------| x4

There's so many places I wanna see
So many things that I wanna be
But time's running out on me

Main Lick x1

There's so many places I gotta go
So many things that I need to know
But time's running out on me


e|---------------------|
B|---------------------|
G|------6-4-6-4-3------|
D|---------------------|
A|---------------------|
E|---------------------|

Times running out on me

Main lick x1

For the Chorus I copy the Rhythm guitar (So just the chords) there is some fancier stuff in the second chorus
but it is pretty much drowned out by the rhythm.

Main lick x2 after chorus

Repeat above for second verse


e|-------------------------------------------------------------------------------|
B|-------------------------------------------------------------------------------|
G|-6-6-6---7-7-7---8-8-8---9-9-9-10-10-10-6-6-6---7-7-7---8-8-8---9-9-9-10-10-10-|
D|-------------------------------------------------------------------------------|
A|-------------------------------------------------------------------------------|
E|-------------------------------------------------------------------------------|
Time is running out on me, now the end is near 
Repeat as needed (4x)
On 4th the Main lick comes in in the background

Solo!
e|-----------------------------------------------------------|
B|---------------------------------------------12------------|
G|----11---11b13br11---9----------11---11/13---13-13---11----|
D|-----0----0-------------11---------------------------------|
A|---------------------------12------------------------------|
E|-----------------------------------------------------------|

e|----------------------------------------------------------------------|
B|----------------------------------6------7-------9------9-------------|
G|----11---11b13b11---9----------/6-----/8-----/10-----11-----11-11/14--|
D|-----0----0-----------11----------------------------------------------|
A|-------------------------12-------------------------------------------|
E|----------------------------------------------------------------------|

Playing the main lick til it fades sounds good, there is again some extra imrpov you can do over it though.

************************************

| /   slide up
| b   Bend
| br  Bend release


************************************

CHORDS

Intro (Power Chords or Bar Chords)
F# F#
F#
There's so many places I wanna see
B                    A
So many things that I wanna be 
     A   (slide up)B (sd) F#
But time's running out on me
F#
There's so many places I gotta go
B                     A
So many things that I need to know
A (su)             B (sd)  F#
But time's running out on me
C#m(sd)        A      F#
Time's running out on me


CHORUS:
D                 A
Tell me how this started
B              F#
Look what I've become
D             A  (A-String 7th fret)   E
Here with all of my regrets and broken dreams
D              A               B             F#      
Are you gonna help me find the strength to carry on
       A             B         F#
'Cause time's running out on me, yeah
C#      A              F#
Time's running out on me

F#

F#
There's so many things that I've yet to do
B                     A            
So many things that I need to prove
     A             B      F#
But time's running out on me
F#
So many things that I need to say
B                       A
But I let the words get in the way
A                  B       F#
And time's running out on me, yeah
C#m            A       F#  
Time's running out on me, yeah

F# (For the entire bridge)
Time is running out on me
Now the end is near...
Time's running out on me...

Solo

D   A   E   B
D   A   C#m

D              A               B             F#      
Are you gonna help me find the strength to carry on
       A             B         F#
'Cause time's running out on me, yeah
E      A              F#
Time's running out on me
E      A              F#
Time's running out on me
E      A              F#
Time's running out on me

Outro:
F#
Добавлено: 27.02.2016
Другие материалы по этой песне:
  • Аккорды и текст

Страница создана 27.02.2016
http://primanota.ru/mercyme/times-running-out-on-me-chords.htm
Привет, Гость.
Предлагаем пройти революционный курс по гитаре.
Подарок от PrimaNota.Ru, забирай!