PrimaNota.ru - самый крупный в мире бесплатный архив песенных текстов, аккордов, табулатур и нот


Mercyful Fate - Satans Fall - аккорды и текст, таба, видео

Регистрация Запомнить меня
Войти через:  Facebook Google Twitter Vk Yandex Mail.ru

Mercyful Fate - Satans Fall - аккорды и текст, таба, видео

Печатать
Просмотров: 144
Satans Fall
Mercyful Fate
		   @SONG: SATAN'S FALL


They're walking by the night
The moon has frozen blue
Long black coats a shelter for the rain
Their load must get through

Now bats are leaving their trees
They're joining the call
Seven satanic Hell preachers
Heading for the hall

Bringing the blood of a newborn child
Got to succeed, if not it's Satan's fall

Home... Come home
Evil messengers with blood stained wings
Home... Come home
Home... Come home

Is it Satan's fall?

No... It's Satan's call

Craniums high on stakes
It's Satan's epigraph
Something you can't erase... 666
They call him the beast

Use your demon eyes, uncover the disguise
Time is out.. Yeah, I don't need your god
Oh the law of Satan
Pray and obey it forever
Oh the law of Satan

Innocent lovers...it's a lie

Iron fists won't do no good against the evil eyes
Of seven holy Hell preachers, don't you even try
Now they cross the river Styx and see the castle rise
G high

Waiting on the other shore for Charon to arrive
A shape with horns and glowing eyes, Satanrs still alive
He receives the sacrifice with evil laughs and pride
You better escape, you've got to escape
You cannot escape





	Michael Fassbender
----------------------------------------|

Title: MF -- Satan's Fall (beginning)


Legend:
-------
x mute
b bend
r release
h hammer on
p pull off
~ vibrato
/ slide up
\ slide down
^^ tremolo
                                                    mute...|           mute....|
|---------------------------------------|---------------------------------------|
|---------------------------------------|---------------------------------------|
|---------------------------------------|---------------------------------------|
|---------------------------------------|---------------------------------------|
|---------------------------------------|---------------------------------------|
|--15--------------\------------(0-)----|-0--h-3----63----3---0-h-3----6-3--3---|

           mute....|                                mute...|           mute....|
|---------------------------------------|---------------------------------------|
|---------------------------------------|---------------------------------------|
|---------------------------------------|---------------------------------------|
|---------------------------------------|---------------------------------------|
|-----------------------8-----7---------|---------------------------------------|
|-0--h-3----6---3-------6-----5---------|-0--h-3----63----3---0-h-3----6-3--3---|

           mute....|                                mute...|           mute....|
|---------------------------------------|---------------------------------------|
|---------------------------------------|---------------------------------------|
|---------------------------------------|---------------------------------------|
|---------------------------------------|---------------------------------------|
|-----------------------8---------------|---------------------------------------|
|-0--h-3----6---3-------6---------------|-0--h-3----63----3---0-h-3----6-3--3---|

           mute....|                                mute...|           mute....|
|---------------------------------------|---------------------------------------|
|---------------------------------------|---------------------------------------|
|---------------------------------------|---------------------------------------|
|---------------------------------------|---------------------------------------|
|-----------------------8-----7---------|---------------------------------------|
|-0--h-3----6---3-------6-----5---------|-0--h-3----63----3---0-h-3----6-3--3---|
                                       They're walking by the night,

           mute....|                                mute...|           mute....|
|---------------------------------------|---------------------------------------|
|---------------------------------------|---------------------------------------|
|---------------------------------------|---------------------------------------|
|---------------------------------------|---------------------------------------|
|-----------------------8---------------|---------------------------------------|
|-0--h-3----6---3-------6---------------|-0--h-3----63----3---0-h-3----6-3--3---|
 the moon has frozen    blue           Long black coats, a shelter for the rain

           mute....|                                mute...|           mute....|
|---------------------------------------|---------------------------------------|
|---------------------------------------|---------------------------------------|
|---------------------------------------|---------------------------------------|
|---------------------------------------|---------------------------------------|
|-----------------------8-----7---------|---------------------------------------|
|-0--h-3----6---3-------6-----5---------|-0--h-3----63----3---0-h-3----6-3--3---|
 Their load must get through!          Now bats are leaving their trees

           mute....|                                mute...|           mute....|
|---------------------------------------|---------------------------------------|
|---------------------------------------|---------------------------------------|
|---------------------------------------|---------------------------------------|
|---------------------------------------|---------------------------------------|
|-----------------------8---------------|---------------------------------------|
|-0--h-3----6---3-------6---------------|-0--h-3----63----3---0-h-3----6-3--3---|
 They're joining the    call             Seven Satanic Hell Preachers

           mute....|
|---------------------------------------|---------------------------------------|
|---------------------------------------|---------------------------------------|
|---------------------------------------|---------------------------------------|
|---------------------------------------|--8----8---8---7---77-----8---8----7---|
|-----------------------8-----7---------|--8----8---8---7---77-----8---8----7---|
|-0--h-3----6---3-------6-----5---------|--6----6---6---5---55-----6---6----5---|
 Heading for the        Hall             Bringing the blood of the newborn child

            mute...|           mute....|           mute....|
|---------------------------------------|---------------------------------------|
|---------------------------------------|---------------------------------------|
|---------------------------------------|---------------------------------------|
|---------------------------------------|---------------------------------------|
|---------------------------------------|-----------------------8----7----------|
|-0--h-3----63----3---0-h-3----6-3--3---|-0--h-3----6---3-------6----5----------|


|---------------------------------------|---------------------------------------|
|---------------------------------------|---------------------------------------|
|---------------------------------------|---------------------------------------|
|--8----8---8---7---77-----8---8----7---|-----5---------------------------------|
|--8----8---8---7---77-----8---8----7---|-----5---------------------------------|
|--6----6---6---5---55-----6---6----5---|-----3---------------------------------|
 Got to succeed, if not it's Satan's Faaaaaall.

|---------------------------------------|---------------------------------------|
|---------------------------------------|---------------------------------------|
|---------------------------------------|---------------------------------------|
|--2-3----------------------------------|--2-3----------------------------------|
|--2-3----------------------------------|--2-3----------------------------------|
|--0-1---00--0--0--6---5--3--1--3---5---|--0-1---00--0--0--6---5--3--1--3-------|


|---------------------------------------|---------------------------------------|
|---------------------------------------|---------------------------------------|
|---------------------------------------|---------------------------------------|
|--2-3----------------------------------|--2-3----------------------------------|
|--2-3----------------------------------|--2-3----------------------------------|
|--0-1---00--0--0--6---5--3--1--3---5---|--0-1---00--0--0--6---5--3--1--3-------|


|---------------------------------------|---------------------------------------|
|---------------------------------------|---------------------------------------|
|---------------------------------------|---------------------------------------|
|--2-3----------------------------------|--2-3----------------------------------|
|--2-3----------------------------------|--2-3----------------------------------|
|--0-1---00--0--0--6---5--3--1--3---5---|--0-1---00--0--0--6---5--3--1--3-------|


|---------------------------------------|---------------------------------------|
|---------------------------------------|---------------------------------------|
|---------------------------------------|---------------------------------------|
|--2-3----------------------------------|--2-3----------------------------------|
|--2-3----------------------------------|--2-3----------------------------------|
|--0-1---00--0--0--6---5--3--1--3---5---|--0-1---00--0--0--6---5--3--1--3-------|

|---------------------------------------|---------------------------------------|
|---------------------------------------|---------------------------------------|
|---------------------------------------|---------------------------------------|
|------2-------2---------2-------2------|------3--------3-------3--------3------|
|----2---2----2--2----2----2----2--2----|----3---3----3---3----3--3----3---3----|
|--0-------0--------0---------0---------|--1--------1-------1--------1----------|


|---------------------------------------|---------------------------------------|
|---------------------------------------|---------------------------------------|
|---------------------------------------|---------------------------------------|
|------2-------2---------2-------2------|------3--------3-------3--------3------|
|----2---2----2--2----2----2----2--2----|----3---3----3---3----3--3----3---3----|
|--0-------0--------0---------0---------|--1--------1-------1--------1----------|


|---------------------------------------|---------------------------------------|
|---------------------------------------|---------------------------------------|
|---------------------------------------|---------------------------------------|
|------2-------2---------2-------2------|------3--------3-------3--------3------|
|----2---2----2--2----2----2----2--2----|----3---3----3---3----3--3----3---3----|
|--0-------0--------0---------0---------|--1--------1-------1--------1----------|
 Ahhh...Hahahahahah....                 Is it Satan's Fall?

|---------------------------------------|---------------------------------------|
|---------------------------------------|---------------------------------------|
|---------------------------------------|---------------------------------------|
|------2-------2---------2-------2------|------3--------3-------3--------3------|
|----2---2----2--2----2----2----2--2----|----3---3----3---3----3--3----3---3----|
|--0-------0--------0---------0---------|--1--------1-------1--------1----------|
 Uhhh....Hahahahahah.....                NO!  It's Satan's Call!

|---------------------------------------|---------------------------------------|
|---------------------------------------|---------------------------------------|
|---------------------------------------|---------------------------------------|
|------2-------3---------2--------3-----|--2------------------------------------|
|----2---2---3---3----2----2-----3---3--|--2------------------------------------|
|--0-------1--------0--------1----------|--0------------------------------------|


|---------------------------------------|---------------------------------------|
|---------------------------------------|---------------------------------------|
|---------------------------------------|---------------------------------------|
|---------------------------------------|---------------------------------------|
|---------------------------------------|---------------------------------------|
|---------------------------------------|---------------------------------------|

Later:

 clean
|---------------------------------------|---------------------------------------|
|---------------------5-----------------|------------------7--------------------|
|------------------5------5-------------|-------------7---------7---------------|
|-------------5--------------5----------|--------7-------------------7----------|
|-0--3----------------------------------|-5-------------------------------------|
|---------------------------------------|---------------------------------------|


|---------------------------------------|---------------------------------------|
|-----------------4-------------------4-|---------------------------------------|
|------------4--------4-----------4-----|-------------------4-------------------|
|--------4----------------4-----4-------|---------------5------5----------------|
|--2-------------------------2----------|-2--0-------5------------5-------------|
|---------------------------------------|------3--------------------------------|
 Innocent lovers.........It's a Lie!            Oooooooo...oooo

                                         with distortion
|---------------------------------------|-10-9----------------------------------|
|---------------------------------------|-------12-10---------------------------|
|---------------6-----------8-----------|----------------12--11--9^^------------|
|-----------7-----7---------9-----------|---------------------------------------|
|------7-------------7------9-----------|---------------------------------------|
|-5-------------------------7-----------|---------------------------------------|
 Oooooooooo

|---------------------------------------|---------------------------------------|
|------------------------------10-------|-12------------9-----------------------|
|--11-h-12--11----9--h-11--12-----------|--------------------10-----------------|
|---------------------------------------|---------------------------11----------|
|---------------------------------------|---------------------------------------|
|---------------------------------------|---------------------------------------|


|-10--9-10-----9-------------9------12--|---------------------------------------|
|---------------------12----------------|---------------------------------------|
|---------------------------------------|--9-^^--------11h-12---11--------------|
|---------------------------------------|---------------------------------------|
|---------------------------------------|---------------------------------------|
|---------------------------------------|---------------------------------------|


|----------------------------9----------|--10---9-10------9---------------------|
|---------------10----12---------10-----|----------------------12----10----12---|
|-9--h11--12-------------------------11-|---------------------------------------|
|---------------------------------------|---------------------------------------|
|---------------------------------------|---------------------------------------|
|---------------------------------------|---------------------------------------|


|---------9----10---9-------------------|---------------------------------------|
|--10-h12----------------12------10-----|---------------------------------------|
|---------------------------------------|---------------------------------------|
|---------------------------------------|---------------------------------------|
|---------------------------------------|---------------------------------------|
|---------------------------------------|---------------------------------------|     
Добавлено: 15.09.2013
Другие материалы по этой песне:

Страница создана 25.02.2012
http://primanota.ru/mercyful-fate/satans-fall-chords.htm
Привет, Гость.
Предлагаем пройти революционный курс по гитаре.
Подарок от PrimaNota.Ru, забирай!