PrimaNota.ru - самый крупный в мире бесплатный архив песенных текстов, аккордов, табулатур и нот


Mercyful Fate - Nightmare Be Thy Name - аккорды и текст, таба, видео

Регистрация Запомнить меня
Войти через:  Facebook Google Twitter Vk Yandex Mail.ru

Mercyful Fate - Nightmare Be Thy Name - аккорды и текст, таба, видео

Печатать
Просмотров: 119
Nightmare Be Thy Name
Mercyful Fate
		   From ozmetin@pan.phys.boun.edu.tr Thu May  8 13:47:56 1997

Song: Nightmare be thy name by Mercyful Fate
      from the album "TIME"

Tab created and edited by Serkan Gunturk
E-mail: gunturkk@boun.edu.tr




e:------9---8-----------9---8-----------9---8-----------9---8---9---11---|
B:--------------10--7-----------10--7-----------10--7--------------------|
G:----------------------------------------------------------------------o|
D:----------------------------------------------------------------------o|
A:-----------------------------------------------------------------------|
E:--2--------------------------------------------------------------------|





e:------------------------------------------------------|
B:------------------------------------------------------|
G:-----------------------------------------------------o|
D:-------------0-------------------0-------------------o|
A:-0---1---2-------2---0---1---2-------2----------------|
E:-----------------------------------------0---1---2----|





e:---------------------------------------------------------------|
B:---------------------------------------------------------------|
G:--------------------------------------------------------------o|
D:------------------2-------------------------------------------o|
A:------------------0-------------------------------5-------3----|
E:--2---2---2---2-------2---2---2---2---2---2---2---3---2---1----|
  Master!...




e:-------------------------------10--9-------9---7-------7-------------------|
B:---7---10--9---7---9---7---6-----------10----------10------10--9---7---6---|
G:---------------------------------------------------------------------------|
D:---------------------------------------------------------------------------|
A:---------------------------------------------------------------------------|
E:---2-----------------------1-----------2-----------------------1-----------|
  Nightmare be thy name.




e:|-------------------------------------------------------|
B:|-------------------------------------------------------|
G:|------------------------------------------------------o|
D:|--------------0-------------------0-------------------o|
A:|--0---1---2-------2---0---1---2-------2----------------|
E:|------------------------------------------0---1---2----|
     Solo...




e:--------------------------------------------------------------|
B:--------------------------------------------------------------|
G:-------------------------------------------------------------o|
D:-----------------2-------------------------------------------o|
A:-----------------0-------------------------------5-------3----|
E:-2---2---2---2-------2---2---2---2---2---2---2---3---2---1----|
   The dream...




e:---------------------------|
B:---------------------------|
G:---------------------------|
D:---------------------------|
A:---------------------------|
E:-2---1---2---1-------------|
   Nightmare be thy name...




e:---------------------------------------------------------------------------|
B:---------------------------------------------------------------------------|
G:---------------------------------------------------------------------------|
D:--2-------5-------5/7-------2-------3---2-------5-------5/7----------------|
A:--2-------5-------5/7-------2-------3---2-------5-------5/7-------5---5---4|
E:--0---0---3---0---3/5---0---0---0---1---0---0---3---0---3/5---0---3---3---2|
    You've got to stop this game!




e:------|-----------------------------------------------------------------|
B:------|-----------------------------------------------------------------|
G:------|-----------------------------------------------------------------|
D:------|--------------------------2--------------------------------------|
A:---4--|--2---2---2---5---2---2-------2---2---5---2---2------------------|
E:---2--|-------------------------------------------------1---1---1---1---|
           Solo...


Serkan Gunturk
Bogazici University
Physics department
Istanbul     
Добавлено: 02.10.2013
Другие материалы по этой песне:

Страница создана 25.04.2012
http://primanota.ru/mercyful-fate/nightmare-be-thy-name-chords.htm
Привет, Гость.
Предлагаем пройти революционный курс по гитаре.
Подарок от PrimaNota.Ru, забирай!