PrimaNota.ru - самый крупный в мире бесплатный архив песенных текстов, аккордов, табулатур и нот


Mercyful Fate - Come To The Sabbath - аккорды и текст, таба, видео

Регистрация Запомнить меня
Войти через:  Facebook Google Twitter Vk Yandex Mail.ru

Mercyful Fate - Come To The Sabbath - аккорды и текст, таба, видео

Печатать
Просмотров: 135
Come To The Sabbath
Mercyful Fate
COME TO THE SABBATH
-------------------
Tabbed by Jani Nevalainen & Steve Begin
          (ccjane@tit.fi)   (sbegin@qc.autoroute.net)

Some parts maybe a bit inaccurate, but it's mainly ok.
I would like to thank a very specially Sami Glad & Steve Begin
for making this possible!!! 

P.M--- 	mute
H 	hammer on
P 	pull off
// 	vibrato
/ 	slide up
 	slide down

Fig1:
     Come Come To The Sabbath     Down By The Ruined
E:-----------------------------------------------------|
B:-----------------------------------------------------|
G:-----------------------------------------------------|
D:7/9-------------------------97----------------------|
A:5/7-------------------------75----------------------|
E:-----------------------------------------------------|
  
  Bridge     Witches And Deamons Are Coming     Just
             Later On The Master Will Join Us   Called 
E:-----------------------------------------------------|
B:-----------------------------------------------------|
G:-----------------------------------------------------|
D:-------75--------------------------------54--------|
A:-------53--------------------------------32--------|
E:-----------------------------------------------------|

  Follow The Magic Call
  From The Hart Of Hell
E:---------------------|
B:---------------------|
G:---------------------|
D:---------------------|
A:---------------------|
E:---------------------|

Fig2: 3 times
                     Acust:
E:----------------------------0-|
B:---------------------------6--|
G:--------------------------7---|
D:-------------------------0----|
A:2-2-P.M-2-2-P.M-2-2-P.M-------|
E:0-0-P.M-0-0-P.M-0-0-P.M-------|

Bridge:
E:----------------|
B:----------------|
G:----------------|
D:----------------|
A:2-2--2-2--|
E:0-0--0-0--|
  PM-/ PM-/



Fig3: 4 Times
E:---------------------------|
B:---------------------------|
G:---------------------------|
D:---------5P4---------3-2---|
A:0-2-3-/5----H5--2-3-----3-|
E:---------------------------|

Fig4: 4 Times

E |--------------------------------|
B |--------------------------------|
G |--------5--4-------------9-8----|
D |--------5--4-------------9-8-9--|
A |-4-4-4--3--2------4-4-4--7-6-9--|
E |-2-2-2------------2-2-2------7--|
    PM----/          PM----/

Fig3 - 2 Times

Fig5:

E |-----------------------------------------|------------------------|
B |-----------------------------------------|------------------------|
G |o-2---5--4----------------------4---5--4-|------------------------|
D |o-2---5--4----------------------4---5--4-|------------------------|
A |--0---3--2----------------------2---3--2-|------------------------|
E |------------333333333333333333-----------|-00000000000030005000000|
              PM---------------/             PM--------------------/

                  2 times|Chorus                                     2 times
E |----------------------|--------------------------------------------------|
B |----------------------|--------------------------------------------------|
G |---------------------o|o-------------------------------------------5--7-o|
D |-----------------5-4-o|o--------1-0-1-----------8-7---------1-0-1--5--7-o|
A |-----------------3-2--|---------2-1-2-----------6-5---------2-1-2--3--5--|
E |-000000000003000------|-0-0-0-0---------0-0-0-0------0-0-0-0-------------|
    PM------------/        PM----/         PM----/


Here's the rhythm part of the solo :
                                                             2 times
E |----------------------------------|-------------------------------|
B |----------------------------------|-------------------------------|
G |----------------------------------|-------------------------------|
D |-H--------------------------------|--H--------H-------4-3-2-------|
A |-/-------------------------2-3-4-|-/-------/-------------0-1-2-|
E |-02222222-02222222-02222222-------|-02222222-02222222-------------|
    PM-----------------------/         PM--------------/

                                                              2 times
E |----------------------------------|-------------------------------|
B |----------------------------------|-------------------------------|
G |----------------------------------|-------------------9--7--9-----|
D |--H--------H--------H--------H--5-|-H--------H--------9--7--9--7--|
A |-/-------/-------/-------/----|-/-------/-------7--5--7--7--|
E |-57777777-57777777-57777777-57-7--|-57777777-57777777----------5--|
    PM----------------------------/    PM--------------/

                                                             2 times
E |----------------------------------|-------------------------------|
B |----------------------------------|-------------------------------|
G |----------------------------------|-------------------------------|
D |-H--------------------------------|--H--------H-------4-3-2-------|
A |-/-------------------------2-3-4-|-/-------/-------------0-1-2-|
E |-02222222-02222222-02222222-------|-02222222-02222222-------------|
    PM-----------------------/         PM--------------/

E |----------------------------|
B |----------------------------|
G |-4-3-2--------------------6-|
D |-------0-1-2--4-3-2-0-2-0-6-|
A |--------------------------4-|
E |----------------------------|

Fig 6: 5 times

E:-8-5-0-8-5-0-8-5-8-5-0-8-5-0-8-5-7-5-0-7-5-0-7-5-7-4-0-7-4-0-7-4|
B:----------------------------------------------------------------|
G:----------------------------------------------------------------|
D:----------------------------------------------------------------|
A:----------------------------------------------------------------|
E:----------------------------------------------------------------|
                
Second guitar, comes after 2 times of Fig 6

E:-12-8-0-12-8-0-12-8-12-8-0-12-8-0-12-8-10-8-0-10-8-0-10-8-10-7-0-10-7-0-10-7-|
B:-----------------------------------------------------------------------------|
G:-----------------------------------------------------------------------------|
D:-----------------------------------------------------------------------------|
A:-----------------------------------------------------------------------------|
E:-----------------------------------------------------------------------------|

Fig 7:
                                          H  P  H
                                         / / /
E |-10-8-0-10-8-0-10-8-10-7-0-10-7-0-8-0-8-10-8-10...----------------|
E |--7-5-0--7-5-0--7-5--7-4-0--7-4-0-5-0-5--7-5--7...----------------|
                                          // /
                                           H P H

Fig 8:

E:--------------------------------------------------|
B:--------------------------------------------------|
G:--------------------------------------------------|
D:----234------------234-----------234--------------|
A:--4-------4320---4-------4320--4------4-320-4-320-|
E:2-------2------2-------2------2-----2-------------|
     
E:-------------------------------------------------------------|
B:-------------------------------------------------------------|
G:-------------------------------------------------------------|
D:----234------------234--------------------320-------------320|
A:--4-------4320---4-------4320--202023-2020----202023-2020----|
E:2-------2------2-------2-------------------------------------|

E:-------------------------------------|
B:-------------------------------------|
G:-------------------------------------|
D:----234------------234---------------|
A:--4-------4320---4-------4-320-4-320-|
E:2-------2------2-------2-------------|

Fig 9: 2 times

E:---------------------------------------------|
B:-------------------------------3---6-6-6-3---|
G:-------------------------------2---5-5-5-2---|
D:----234------------234---------0---3-3-3-0---|
A:--4-------4320---4-------4320----------------|
E:2-------2------2-------2---------------------|


E:-----------------------------------------------------------|
B:-------------------------------3--6-6-6-3------------------|
G:-------------------------------2--5-5-5-2---7----6---5-----|
D:----234------------234---------0--3-3-3-0---7----6---5---4-|
A:--4-------4320---4-------4320---------------5----4---3---4-|
E:2-------2------2-------2---------------------------------2-|
                                              You are the one!

I've transcribed the solo, but it's not very accurate.  It's a very though solo
to transcribed because there's always a second guitar that harmonies the first.
I think the second guitar harmonies the first with 3rds through-out the
solo.  Anyway, here's what I've done!:

This part is when the rhythm pedal is on F#
E |-17--16-17-16----14-16-14--14--14-16-14----------------------------------|
B |-------/-/---17--------17-----/-/--17--------------------------------|
G |-------H--P----------------------H--P-----14(B)-12-----------------------|
D |----------------------------------------------/---14--------------------|
A |----------------------------------------------P--------------------------|
E |-------------------------------------------------------------------------|
  |
E |-21--19-21-19----17-19-17--17--17-19-17----------------------------------|
B |-------//----21--------21------//--21--------------------------------|
G |--------H-P----------------------H-P------14(B)-12-----------------------|
D |----------------------------------------------/---14--------------------|
A |----------------------------------------------P--------------------------|
E |-------------------------------------------------------------------------|


E |-17--16-17-16----14-16-14--14--14-16-14----------------------------------|
B |-------/-/---17--------17-----/-/--17--------------------------------|
G |-------H--P----------------------H--P-----14(B)-12-12--------------------|
D |----------------------------------------------/-------------------------|
A |----------------------------------------------P--------------------------|
E |-------------------------------------------------------------------------|
  |
E |-21--19-21-19----17-19-17--17--17-19-17----------------------------------|
B |-------//----21--------21------//--21--------------------------------|
G |--------H-P----------------------H-P------14(B)-12-12--------------------|
D |----------------------------------------------/-------------------------|
A |----------------------------------------------P--------------------------|
E |-------------------------------------------------------------------------|


This part is when the rhythm pedal change to B
E |----------------------|-------------------------------|
B |----------------------|----------------------------17-|  I'm not sure for 
G |-9-/-11-11-11-11--14--|-17-15-14-18-16-15-19-17-16----| 
Добавлено: 19.05.2012
Другие материалы по этой песне:

Страница создана 01.03.2012
http://primanota.ru/mercyful-fate/come-to-the-sabbath-chords.htm
Привет, Гость.
Предлагаем пройти революционный курс по гитаре.
Подарок от PrimaNota.Ru, забирай!