PrimaNota.ru - самый крупный в мире бесплатный архив песенных текстов, аккордов, табулатур и нот


Mercy Bell - All Good Cowboys - аккорды и текст, видео

Регистрация Запомнить меня
Войти через:  Facebook Google Twitter Vk Yandex Mail.ru

Mercy Bell - All Good Cowboys - аккорды и текст, видео

Печатать
Просмотров: 83
Уроки эстрадного вокала в Санкт-Петербурге
All Good Cowboys
Mercy Bell
-------------------------------------------------------------------------------
                        ALL GOOD COWBOYS - Mercy Bell
-------------------------------------------------------------------------------
Tabbed by: me
E-mail: herpderpface@y7mail.com

http://mercybell.com/

Tuning: STANDARD

CAPO 3

[INTRO]: play whatever notes in the appropriate chords you can for a fuller sound, 
but otherwise the tab alone will do:

       G            Em                            C                 G
e|---------------------------------------------------------------------------|
B|--------------------------------0-0---0---0--------------------------------|
G|------0-0---0---0-------0-------0-0---0---0------------------0-0-----------|
D|------0-0---0---0-------0--------------------------0---0h2-2----------0h2--|
A|------------------0h2-2----------------------0h2-2---3---------------------|
E|-3-3------3---------------0-0-------0----------------------------3--3------|

  D
e|------------2---------|
B|-0-0--0h2---3---------|
G|------------2---------|
D|------------0---------|
A|----------------------|
E|----------------------|


[VERSE1]
G                                Em
Take it down, put it in a jar with butterflies
                     C
Fill it up with some formaldehyde
     G                  D
You won't see it here again. 
          G                                    Em
You said take it slow: it's a mood, and it will come and go.
                       C
But the joints I needed didn't grow 
     G                       D
And left me crippled in your eyes

[CHORUS]
         C               G
Oh, and all good cowboys know 
              Em                    D
There ain't no good old home, sweet home. 
        C                  G
So I'll raise my protest, raise my drink
       Em                 D
And I won't live here no more. 
         C                 G                   Em              D
'Cuz you never learned my name, it was the one name you should know. 
            C      G
And I will lay me down,
        C      G
I will lay me down, 
        C       G         D
I will lay me down, the road.

---

And the chords are the same for the rest of the song! 
Добавлено: 03.07.2013
Другие материалы по этой песне:
  • Аккорды и текст

Страница создана 03.07.2013
http://primanota.ru/mercy-bell/all-good-cowboys-chords.htm
Привет, Гость.
Предлагаем пройти революционный курс по гитаре.
Подарок от PrimaNota.Ru, забирай!