PrimaNota.ru - самый крупный в мире бесплатный архив песенных текстов, аккордов, табулатур и нот


Mercury Rev - Endlessly - текст песни, таба, видео

Регистрация Запомнить меня
Войти через:  Facebook Google Twitter Vk Yandex Mail.ru

Mercury Rev - Endlessly - текст песни, таба, видео

Печатать
Просмотров: 146
Уроки эстрадного вокала в Санкт-Петербурге
Авторы текста: Jonathan Donahue
As recorded by Mercury Rev
                      (From the 1999 Album DESERTERS SONGS)

Transcribed by Corey Hunter @ www.coreyhunter.com

           A                  Amaj7                 A7               F#add11/C#
      x 0 2 2 2 0          x 0 2 1 2 0          x 0 2 0 2 0          x 4 4 3 0 x

        Asus2/B               Eadd2                 E7                   E9
      x 2 2 2 0 0          0 x 2 1 0 2          x 7 6 7 0 7          x 7 6 7 7 x

           E
      0 x 2 1 0 x

Gtr I (E A D G B E) - 'Rev acoustic'

   Intro
    Smooth Americana Q=120
    A                 Amaj7             A7                F#add11/C#
   4/4
    Gtr I
    E E E E E E E E   E E E E E E E E   E E E E E E E E   E E E E E E E E
||----------0-------|---------0-------|---------0-------|----------------|
||o---2-------2---2-|---2-------2---2-|---2-------2---0-|---------0------|
||------2-------2---|-----1-------1---|-----0-------0---|---3-------3----|
||--------2---------|-------2---------|-------2---------|-----4-------4--|
||o-0---------------|-0---------------|-0---------------|-4-----4-------0|
||------------------|-----------------|-----------------|----------------|


  Asus2/B           Eadd2             A
  E E E E E E E E   E E E E E E E E   E E E E E E E E   E E E E E E E E
|---------0-------|---------2-0-----|---------0-------|---------0---------||
|-----------0-----|---0---------0---|---2-------2---2-|---2-------2---2--o||
|---2-----------0-|-----1---------1-|-----2-------2---|-----2-------2-----||
|-----2-------2---|-------2---------|-------2---------|-------2-----------||
|-2-----2---------|-----------------|-0---------------|-0----------------o||
|-----------------|-0---------------|-----------------|-------------------||


   Verse 1 and 2
    $
    A                 Amaj7             A7                F#add11/C#
    E E E E E E E E   E E E E E E E E   E E E E E E E E   E E E E E E E E
||----------0-------|---------0-------|---------0-------|-----------------|
||o---2-------2---2-|---2-------2---2-|---2-------2---0-|-----------------|
||------2-------2---|-----1-------1---|-----0-------0---|---3-----4-3-----|
||--------2---------|-------2---------|-------2---------|-----4-------4---|
||o-0---------------|-0---------------|-0---------------|-4-----4-------0-|
||------------------|-----------------|-----------------|-----------------|


                                                               To Coda
  Asus2/B           Eadd2             A
  E E E E E E E E   E E E E E E E E   E E E E E E E E   E E E E E E E E
|---------0-------|---------2-0-----|---------0-------|---------0---------||
|-----------0-----|---0---------0---|---2-------2---2-|---2-------2---2--o||
|---2-----------0-|-----1---------0-|-----2-------2---|-----2-------2-----||
|-----2-------2---|-------2---------|-------2---------|-------2-----------||
|-2-----2---------|-----------------|-0---------------|-0----------------o||
|-----------------|-0---------------|-----------------|-------------------||


 Choral Theme
  A                 Amaj7             A7                F#add11/C#
  E E E E E E E E   E E E E E E E E   E E E E E E E E   E E E E E E E E
|---------0-------|---------0-------|---------0-------|------------------|
|---2-------2---2-|---2-------2---2-|---2-------2---0-|------------------|
|-----2-------2---|-----1-------1---|-----0-------0---|---3-----4-3------|
|-------2---------|-------2---------|-------2---------|-----4-------4----|
|-0---------------|-0---------------|-0---------------|-4-----4-------0--|
|-----------------|-----------------|-----------------|------------------|


                                                          D.S. al Coda
  Asus2/B           Eadd2             A
  E E E E E E E E   E E E E E E E E   E E E E E E E E   E E E E E E E E
|---------0-------|---------2-0-----|---------0-------|---------0--------|
|-----------0-----|---0---------0---|---2-------2---2-|---2-------2---2--|
|---2-----------0-|-----1---------0-|-----2-------2---|-----2-------2----|
|-----2-------2---|-------2---------|-------2---------|-------2----------|
|-2-----2---------|-----------------|-0---------------|-0----------------|
|-----------------|-0---------------|-----------------|------------------|


 Interlude
  &
  E7                E9                  A
  E E E E E E E E   E E E E E E E  E    E E E E E E E E   E E E E H
|---------------7-|-------------------|---------2-0-----|---------0----|
|---------0-------|-------7---0-------|---2---------2---|-------2------|
|---7-------7-----|---7---------7-----|-----2---------2-|-----2--------|
|-----6-------6---|-----6---6---------|-------2---------|---2----------|
|-7-----7---------|-7-------------(7)-|-0---------------|-0------------|
|-----------------|-------------------|-----------------|--------------|


  E                       Eadd2             A
   E  E E E E  E  E E   E E E E E E E  E    E E E E E E E E   E E E E H
|---------------------|-------2-----------|---------2-0-----|---------0----|
|-----------0-------0-|-----------0-3-----|---2---------2---|-------2------|
|-------1---------1---|-----1---1---------|-----2---------2-|-----2--------|
|-----2---2---(2)-----|---2-----------(2)-|-------2---------|---2----------|
|---------------------|-------------------|-0---------------|-0------------|
|-(0)-----------------|-------------------|-----------------|--------------|


    A                 Amaj7             A7                F#add11/C#
    E E E E E E E E   E E E E E E E E   E E E E E E E E   E E E E E E E E
||----------0-------|---------0-------|---------0-------|-----------------|
||o---2-------2---2-|---2-------2---2-|---2-------2---0-|-----------------|
||------2-------2---|-----1-------1---|-----0-------0---|---3-----4-3-----|
||--------2---------|-------2---------|-------2---------|-----4-------4---|
||o-0---------------|-0---------------|-0---------------|-4-----4-------0-|
||------------------|-----------------|-----------------|-----------------|


  Asus2/B           Eadd2             A
  E E E E E E E E   E E E E E E E E   E E E E E E E E   E E E E E E E E
|---------0-------|---------2-0-----|---------0-------|---------0---------||
|-----------0-----|---0---------0---|---2-------2---2-|---2-------2---2--o||
|---2-----------0-|-----1---------0-|-----2-------2---|-----2-------2-----||
|-----2-------2---|-------2---------|-------2---------|-------2-----------||
|-2-----2---------|-----------------|-0---------------|-0----------------o||
|-----------------|-0---------------|-----------------|-------------------||


   Verse 3
    A                 Amaj7             A7                F#add11/C#
    E E E E E E E E   E E E E E E E E   E E E E E E E E   E E E E E E E E
||----------0-------|---------0-------|---------0-------|-----------------|
||o---2-------2---2-|---2-------2---2-|---2-------2---0-|---------0-------|
||------2-------2---|-----1-------1---|-----0-------0---|---3-------3-----|
||--------2---------|-------2---------|-------2---------|-----4-------4---|
||o-0---------------|-0---------------|-0---------------|-4-----4-------0-|
||------------------|-----------------|-----------------|-----------------|


  Asus2/B           Eadd2             A
  E E E E E E E E   E E E E E E E E   E E E E E E E E   E E E E E E E E
|---------0-------|---------2-0-----|---------0-------|---------0---------||
|-----------0-----|---0---------0---|---2-------2---2-|---2-------2---2--o||
|---2-----------0-|-----1---------0-|-----2-------2---|-----2-------2-----||
|-----2-------2---|-------2---------|-------2---------|-------2-----------||
|-2-----2---------|-----------------|-0---------------|-0----------------o||
|-----------------|-0---------------|-----------------|-------------------||


   Outro
    E7                                    A
    E E E E E E E E   E E E E E E E  E    E E E E E E E E    E  E E E H
||----------------7-|---0---------------|---------2-0-----|-----------0-----||
||o---------0-------|-------7---0-------|---2---------2---|---------2------o||
||----7-------7-----|-------------7-----|-----2---------2-|-------2---------||
||------6-------6---|-6---6---6-----(6)-|-------2---------|-----2-----------||
||o-7-----7---------|-------------------|-0---------------|-(0)------------o||
||------------------|-------------------|-----------------|-----------------||


    A                 Amaj7             A7                F#add11/C#
    E E E E E E E E   E E E E E E E E   E E E E E E E E   E E E E E E E E
||----------0-------|---------0-------|---------0-------|-----------------|
||o---2-------2---2-|---2-------2---2-|---2-------2---0-|---------0-------|
||------2-------2---|-----1-------1---|-----0-------0---|---3-------3-----|
||--------2---------|-------2---------|-------2---------|-----4-------4---|
||o-0---------------|-0---------------|-0---------------|-4-----4-------0-|
||------------------|-----------------|-----------------|-----------------|


  Asus2/B           Eadd2
  E E E E E E E E   E E E E E E E E
|---------0-------|---------2-0-----|
|-----------0-----|---0---------0---|
|---2-----------0-|-----1---------0-|
|-----2-------2---|-------2---------|
|-2-----2---------|-----------------|
|-----------------|-0---------------|


                    1.,2.               3.
  A                                     A
  E E E E E E E E   E E E E E E E E  3x  W
|---------0-------|---------0--------||-^0----*|
|---2-------2---2-|---2-------2---2-o||-^2----*|
|-----2-------2---|-----2-------2----||-^2----*|
|-------2---------|-------2----------||-^2----*|
|-0---------------|-0---------------o||-^0----*|
|-----------------|------------------||-------*|


Duration Legend
---------------
W - whole; H - half; Q - quarter; E - 8th; S - 16th; T - 32nd; X - 64th; a - acciaccatura
+ - note tied to previous; . - note dotted; .. - note double dotted
Uncapitalized letters represent notes that are staccato (1/2 duration)
Irregular groupings are notated above the duration line
Duration letters will always appear directly above the note/fret number it represents the
duration for.  Duration letters with no fret number below them represent rests.  Multi-
bar rests are notated in the form Wxn, where n is the number of bars to rest for.  Low
melody durations appear below the staff

Tablature Legend
----------------
 h   - hammer-on
 p   - pull-off
 b   - bend
 pb  - pre-bend
 r   - bend release (if no number after the r, then release immediately)
 /\  - slide into or out of (from/to "nowhere")
 s   - legato slide
 S   - shift slide
  - natural harmonic
[n]  - artificial harmonic
n(n) - tapped harmonic
 ~   - vibrato
 tr  - trill
 T   - tap
 TP  - trem. picking
 PM  - palm muting
\n/  - tremolo bar dip; n = amount to dip
 \n  - tremolo bar down
 n/  - tremolo bar up
/n\  - tremolo bar inverted dip
 =   - hold bend; also acts as connecting device for hammers/pulls
 <>  - volume swell (louder/softer)
 x   - on rhythm slash represents muted slash
 o   - on rhythm slash represents single note slash

Misc Legend
-----------
 |  - bar
||  - double bar
||o - repeat start
o|| - repeat end
*|  - double bar (ending)
 :  - bar (freetime)
 $  - Segno
 &  - Coda
Tempo markers -  = BPM(8/16=s8/s16), where s8 = swing 8ths, s16 = swing 16ths
Добавлено: 23.07.2012
Другие материалы по этой песне:

Страница создана 07.07.2012
http://primanota.ru/mercury-rev/endlessly-chords.htm
Привет, Гость.
Предлагаем пройти революционный курс по гитаре.
Подарок от PrimaNota.Ru, забирай!