PrimaNota.ru - самый крупный в мире бесплатный архив песенных текстов, аккордов, табулатур и нот


Merciless - Dying World - текст песни, таба, видео

Регистрация Запомнить меня
Войти через:  Facebook Google Twitter Vk Yandex Mail.ru

Merciless - Dying World - текст песни, таба, видео

Печатать
Просмотров: 50
Artist: Merciless
Song: Dying World
Album: The Awakening
Year: 1990
Tabbed by: antichris666

Tuning: E standard

 Intro
e|-----------------------------------------------------------------|
B|-----------------------------------------------------------------|
G|-----------------------------------------------------------------|
D|-----------------------------------------------------------------|
A|-3\2-------------6\5-4\5-4\3-4\5-----------------6\5-4\5-4\3-4\5-|
E|-1\0-0-0-0-0-0-0-4\3-2\3-2\1-2\3-0-0-0-0-0-0-0-0-4\3-2\3-2\1-2\3-|
       . . . . . .                 . . . . . . . . 

e|-------------------------------------------------------------|
B|-------------------------------------------------------------|
G|-------------------------------------------------------------|
D|-------------------------------------------------------------|
A|-------------6\5-4\5-4\3-4\5-----------------6\5-4\5-4\3-4\5-|
E|-0-0-0-0-0-0-4\3-2\3-2\1-2\3-0-0-0-0-0-0-0-0-4\3-2\3-2\1-2\3-|
   . . . . . .                 . . . . . . . . 

e|-------------------------------------------------------------|
B|-------------------------------------------------------------|
G|-------------------------------------------------------------|
D|-------------------------------------------------------------|
A|-------------6\5-4\5-4\3-4\5-----------------6\5-4\5-4\3-4\5-|
E|-0-0-0-0-0-0-4\3-2\3-2\1-2\3-0-0-0-0-0-0-0-0-4\3-2\3-2\1-2\3-|
   . . . . . .                 . . . . . . . . 


 Riff A (Repeat 6 times)
e|-----------------------------------------------------------|
B|-----------------------------------------------------------|
G|-----------------------------------------------------------|
D|-------4\3-------------------------------------------------|
A|-2-----2\1-----4\5-----6\5-----3-----6\5-4\5-3-----6\5-4\5-|
E|-0-0-0-----0-0-2\3-0-0-4\3-0-0-1-0-0-4\3-2\3-1-0-0-4\3-2\3-|
     . .     . .     . .     . .   . .           . .  


 Riff B
e|-------------------------------------------------------------------------------------------|
B|-------------------------------------------------------------------------------------------|
G|-------------------------------------------------------------------------------------------|
D|-------------------------------------------------------------------------------------------|
A|-2-2-------2h3h4-1h2h3----2-----2-----------2h3h4-1h2h3----2-----2-----------2h3h4-1h2h3---|
E|-0-0-2h3h4-------------1--0-0-0-0-0-0-2h3h4-------------1--0-0-0-0-0-0-2h3h4-------------1-|
                              . .   . .                        . .   . .

e|------------------------------------------------------------------|
B|------------------------------------------------------------------|
G|------------------------------------------------------------------|
D|------------------------------------------------------------------|
A|-2-----2-----------2h3h4-1h2h3----2-----2-----------2h3h4-1h2h3---|
E|-0-0-0-0-0-0-2h3h4-------------1--0-0-0-0-0-0-2h3h4-------------1-|
     . .   . .                        . .   . .


 Riff C (Repeat 2 times)
e|----------------------------------------------------------|
B|----------------------------------------------------------|
G|----------------------------------------------------------|
D|----------------------------------------------------------|
A|-6-----6-----7\6-----6\5-4\5--6-----6-----7\6-----6\5-4\5-|
E|-4-4-4-4-4-4-5\4-4-4-4\3-2\3--4-4-4-4-4-4-5\4-4-4-4\3-2\3-|
     . .   . .     . .            . .   . .     . .


 Riff D (Repeat 2 times)
e|------------------------------------------------------------------|
B|------------------------------------------------------------------|
G|------------------------------------------------------------------|
D|------------------------------------------------------------------|
A|-2-----2-----------2h3h4-1h2h3----2-----2-----------2h3h4-1h2h3---|
E|-0-0-0-0-0-0-2h3h4-------------1--0-0-0-0-0-0-2h3h4-------------1-|
     . .   . .                        . .   . .


 Riff C (Repeat 2 times)
e|----------------------------------------------------------|
B|----------------------------------------------------------|
G|----------------------------------------------------------|
D|----------------------------------------------------------|
A|-6-----6-----7\6-----6\5-4\5--6-----6-----7\6-----6\5-4\5-|
E|-4-4-4-4-4-4-5\4-4-4-4\3-2\3--4-4-4-4-4-4-5\4-4-4-4\3-2\3-|
     . .   . .     . .            . .   . .     . .


 Riff E (Repeat 3 times)
e|-------------------------------------------------------------|
B|-------------------------------------------------------------|
G|-------------------------------------------------------------|
D|-------------------------------------------------------------|
A|-------------6\5-4\5-4\3-4\5-----------------6\5-4\5-4\3-4\5-|
E|-0-0-0-0-0-0-4\3-2\3-2\1-2\3-0-0-0-0-0-0-0-0-4\3-2\3-2\1-2\3-|
   . . . . . .                 . . . . . . . . 


 Riff F (Repeat 7 times)
e|----------------------------|
B|----------------------------|
G|----------------------------|
D|------9----8----------------|
A|-2----7----6----6----5----4-|
E|-0--------------7----6----5-|


 Riff G (Repeat 4 times)
e|---------------------------------------------------|
B|---------------------------------------------------|
G|---------------------------------------------------|
D|---------------------------------------------------|
A|-9-----9-7\8-----5-3-2-----------------------------|
E|-7-7-7-7-5\6-6-6-3-1-0-0-0-0-0-0-0-0-0-0-0-0-0-0-0-|
     . .       . .       . . . . . . . . . . . . . .


Bells of damnation ring for me
I can see the clouds of misery
The endless search for immortality
This dying world is all I can see

Curse of loneliness and pain
Inside my head the past appear
Remember the day's of happiness
All that is left is fear
The light is slowly fading away
No reason for me to stay
See the light again I must
Can't see nothing I walk through the dust
No fear of tomorrow
Because there is none
End of all life
Dark is the sun

The smell in the air is so strange
But there's nothing I can change
How long will I stand the pain
Will I die before I go insane

I wonder if there's anything beyond
Is there any hope for me at all
Now it's time for me to pass away
I can hear the bells of death call!

Bells of damnation ring for me
I can see the clouds of misery
The endless search for immortality
This dying world is all I can see



************************************

| .   palm mute
| /   slide up
| \   slide down
| h   hammer-on
| p   pull-off
| ~   vibrato
| +   harmonic
| x   Mute note
| b   Bend
| pb  Pre-bend
| br  Bend release
| pbr Pre-bend release
| brb Bend release bend

************************************
Добавлено: 23.04.2016
Другие материалы по этой песне:
  • Аккорды и текст

Страница создана 01.02.2014
http://primanota.ru/merciless/dying-world-chords.htm
Привет, Гость.
Предлагаем пройти революционный курс по гитаре.
Подарок от PrimaNota.Ru, забирай!