PrimaNota.ru - самый крупный в мире бесплатный архив песенных текстов, аккордов, табулатур и нот


Merciless - Dreadful Fate - таба, видео

Регистрация Запомнить меня
Войти через:  Facebook Google Twitter Vk Yandex Mail.ru

Merciless - Dreadful Fate - таба, видео

Печатать
Просмотров: 57
Artist: Merciless
Song: Dreadful Fate
Album: The Awakening
Year 1990
Tabbed by: antichris666

Tuning: E standard

 Verse (Repeat 6 times)
e|------------------------------------------------------------------|
B|------------------------------------------------------------------|
G|------------------------------------------------------------------|
D|-5---------5---------5----------------3---------3---------3--2----|
A|-3--3-3-3--3--3-3-3--3--3-3-3--4h3p4--1--1-1-1--1--1-1-1--1--0--3-|
E|----------------------------------------------------------------1-|
      . . .     . . .     . . .            . . .     . . . 

 Riff A (Repeat 2 times)
e|--------------------------------------------------------------------|
B|--------------------------------------------------------------------|
G|--------------------------------------------------------------------|
D|------------------------------------------------------------5-----4-|
A|-5---------5---------5---------6--6--5---------5---------3--3--3--2-|
E|-3--3-3-3--3--3-3-3--3--3-3-3--4--4--3--3-3-3--3--3-3-3--1-----1----|
      . . .     . . .     . . .           . . .     . . . 


 Gtr I (Repeat 2 times)
e|----------------------------------------------------------------------------|
B|----------------------------------------------------------------------------|
G|----------------------------------------------------------------------------|
D|------6-5-----------------6-5---------------6-5-----------------6-5---------|
A|------------------------------------3-------------------------------------6-|
E|-0-0-------0--1-4-3--0-0-------0-0--1--0-0-------0--1-4-3--0-0-------0-0--4-|
   . .       .         . .       . .     . .       .         . .       . . 
 
 Gtr II (Repeat 2 times)
e|----------------------------------------------------------------------------|
B|----------------------------------------------------------------------------|
G|----------------------------------------------------------------------------|
D|----------------------------------------------------------------------------|
A|-5----------------------------------3--5----------------------------------6-|
E|-3----------------------------------1--3----------------------------------4-|


 Chorus (Repeat 4 times)
e|-------------------------------------|
B|-------------------------------------|
G|-------------------------------------|
D|-----------------------5-5--4-4------|
A|-5-5-5-5-5-5-5-5--3-3--3-3--2-2--6-6-|
E|-3-3-3-3-3-3-3-3--1-1------------4-4-|
   . . . . . . . .  . . 
  
 Riff B 
e|-------------|
B|-------------|
G|-------------|
D|-------------|
A|-5----3----2-|
E|-3----1----0-|

 Riff C
e|---------------------------------------------------------------------------------------------|
B|---------------------------------------------------------------------------------------------|
G|---------------------------------------------------------------------------------------------|
D|-0-0-0-0-0-0--10--0-0-0--12--0-0-0--10--0-0-0-0-0-0-0-0-0-0--10--0-0-0--12--0-0-0--10--0-0-0-|
A|---------------------------------------------------------------------------------------------|
E|---------------------------------------------------------------------------------------------|
   . . . . . .      . . .      . . .      . . . . . . . . . .      . . .      . . .      . . . 

 Riff D
e|----------------------------------------------------------------------------------|
B|----------------------------------------------------------------------------------|
G|----------------------------------------------------------------------------------|
D|-7--0-0-0--8--0-0-0--10--0-0-0--8--0-0-0--7--0-0-0--8--0-0-0--10--0-0-0--8--0-0-0-|
A|----------------------------------------------------------------------------------|
E|----------------------------------------------------------------------------------|
      . . .     . . .      . . .     . . .     . . .     . . .      . . .     . . . 

 Riff E
e|--------------------------------------------------------------------------------------|
B|--------------------------------------------------------------------------------------|
G|--------------------------------------------------------------------------------------|
D|-9--0-0-0--10--0-0-0--12--0-0-0--10--0-0-0--9--0-0-0--10--0-0-0--12--0-0-0--10--0-0-0-|
A|--------------------------------------------------------------------------------------|
E|--------------------------------------------------------------------------------------|
      . . .      . . .      . . .      . . .     . . .      . . .      . . .      . . .

 Riff D
e|----------------------------------------------------------------------------------|
B|----------------------------------------------------------------------------------|
G|----------------------------------------------------------------------------------|
D|-7--0-0-0--8--0-0-0--10--0-0-0--8--0-0-0--7--0-0-0--8--0-0-0--10--0-0-0--8--0-0-0-|
A|----------------------------------------------------------------------------------|
E|----------------------------------------------------------------------------------|
      . . .     . . .      . . .     . . .     . . .     . . .      . . .     . . .

 Riff G (Repeat 2 times)
e|--------------------------------------------------|
B|--------------------------------------------------|
G|--------------------------------------------------|
D|--------------------------------------------------|
A|-7-7-7-7-7-7--8--7-7-7-7--10--7-7-7-7--8--7-7-7-7-|
E|--------------------------------------------------|
   . . . . . .     . . . .      . . . .     . . . .

 Riff H (Repeat 2 times)
e|-------------------------------------------------|
B|-------------------------------------------------|
G|-------------------------------------------------|
D|-------------------------------------------------|
A|-5-5-5-5-5-5--6--5-5-5-5--8--5-5-5-5--6--5-5-5-5-|
E|-------------------------------------------------|
   . . . . . .     . . . .     . . . .     . . . .

 Riff E
e|--------------------------------------------------------------------------------------|
B|--------------------------------------------------------------------------------------|
G|--------------------------------------------------------------------------------------|
D|-9--0-0-0--10--0-0-0--12--0-0-0--10--0-0-0--9--0-0-0--10--0-0-0--12--0-0-0--10--0-0-0-|
A|--------------------------------------------------------------------------------------|
E|--------------------------------------------------------------------------------------|
      . . .      . . .      . . .      . . .     . . .      . . .      . . .      . . .

 Riff D
e|----------------------------------------------------------------------------------|
B|----------------------------------------------------------------------------------|
G|----------------------------------------------------------------------------------|
D|-7--0-0-0--8--0-0-0--10--0-0-0--8--0-0-0--7--0-0-0--8--0-0-0--10--0-0-0--8--0-0-0-|
A|----------------------------------------------------------------------------------|
E|----------------------------------------------------------------------------------|
      . . .     . . .      . . .     . . .     . . .     . . .      . . .     . . .


 The war is here and what will remain
 what will happen when insanity prevail
 caught in a grasp of eternal pain
 fear and tears you cannot restrain

 We all fight with a growing hate
 kill to live is a dreadful fate

 They don't care how you plead
 your head under the sword of steel
 They'll find you wherever they dwell
 take your soul and send it to hell

 Fuck, can't you see
 who will survive, you or me

 Dreadful fate!


************************************

| .   palm mute
| /   slide up
| \   slide down
| h   hammer-on
| p   pull-off
| ~   vibrato
| +   harmonic
| x   Mute note
| b   Bend
| pb  Pre-bend
| br  Bend release
| pbr Pre-bend release
| brb Bend release bend

************************************
Добавлено: 23.04.2016
Другие материалы по этой песне:
  • Аккорды и текст

Страница создана 23.04.2016
http://primanota.ru/merciless/dreadful-fate-chords.htm
Привет, Гость.
Предлагаем пройти революционный курс по гитаре.
Подарок от PrimaNota.Ru, забирай!