PrimaNota.ru - самый крупный в мире бесплатный архив песенных текстов, аккордов, табулатур и нот


Merciless - Denied Birth - текст песни, таба, видео

Регистрация Запомнить меня
Войти через:  Facebook Google Twitter Vk Yandex Mail.ru

Merciless - Denied Birth - текст песни, таба, видео

Печатать
Просмотров: 54
Artist: Merciless 
Song: Denied Birth
Album: The Awakening 

Tabbed by:chris

Tuning:E standard

Gtr 1
e|--------------------------------------------|--------|
B|--------------------------------------------|--------|
G|--------------------------------------------|--------|
D|--------------------------------------------|--------|
A|3-3-2---------------------------------3-3-2-|2-3-2-3-|
E|1-1-0---------------------------------1-1-0-|0-1-0-1-|
                   

Gtr 2
e|--------------------------------------------|--------|
B|--------------------------------------------|--------|
G|-----------9-8-----------------9-8----------|--------|
D|------10-9-----10-9-10----10-9-----10-9-----|--------|
A|----------------------------------------10--|2-3-2-3-|
E|--------------------------------------------|0-1-0-1-|
                    

e|-------------------------------------------------------------------|
B|-------------------------------------------------------------------|
G|-------------------------------------------------------------------|
D|-------------------------------------------------------------------|  
A|-------------------------7-6-7-------------------------------------|
E|000000000000000000000000-5-4-5-4444444444444444-11111111-3333-1111-|
                                  

e|--------|---------------------------------------------|
B|--------|---------------------------------------------|
G|--------|---------------------------------------------|
D|5-------|------------------------------------7-6-3-6--|
A|3-3-7-6-|5-----6-----5-----6-----5-----6-----5-4-1-4--|
E|--1-5-4-|3-333-4-444-3-333-4-444-3-333-4-444----------|


e|-------------------------------|--------|
B|-------------------------------|--------|
G|-------------------------------|--------|
D|-----9-------------------------|--------|
A|-----7-9-8---------------------|7-7-6-6-|
E|0000---7-6-3333-1111-5555-4444-|5-5-4-4-|

e|--------------------------------------------------------------------|
B|--------------------------------------------------------------------|
G|--------------------------------------------------------------------|
D|--------------------------------------------------------------------|
A|-------------6-5--------------8-7--------------6-5----------8-7-4-7-|
E|000000000000-4-3-000000000000-6-5-000000000000-4-3-00000000-6-5-2-5-|

e|------------------------------|
B|------------------------------|
G|------------------------------|
D|------------------------------| 
A|------------------------------|
E|0000-6666-5555-0000-4444-3333-|


************************************

| /   slide up
| \   slide down
| h   hammer-on
| p   pull-off
| ~   vibrato
| +   harmonic
| x   Mute note
| b   Bend
| pb  Pre-bend
| br  Bend release
| pbr Pre-bend release
| brb Bend release bend

************************************
Добавлено: 16.12.2015
Вам также может быть интересно:
Другие материалы по этой песне:
  • Аккорды и текст

Страница создана 05.10.2014
http://primanota.ru/merciless/denied-birth-chords.htm
Привет, Гость.
Предлагаем пройти революционный курс по гитаре.
Подарок от PrimaNota.Ru, забирай!