PrimaNota.ru - самый крупный в мире бесплатный архив песенных текстов, аккордов, табулатур и нот


Merciless - Bestial Death - текст песни, таба, видео

Регистрация Запомнить меня
Войти через:  Facebook Google Twitter Vk Yandex Mail.ru

Merciless - Bestial Death - текст песни, таба, видео

Печатать
Просмотров: 65
Artist: Merciless
Song: Bestial Death
Album: The Awakening
Year: 1990
Tabbed by:chris

Tuning: E standard
 
 Intro
e|---------|--------------------------------------------------------|
B|---------|--------------------------------------------------------|
G|---------|--------------------------------------------------------|
D|-5-4-----|--------------------------------3-----------------------|
A|-3-2-5-4-|----------------3---------------1---------------3--5--3-|
E|-----3-2-|-0-0-0-0-0-0-0--1--0-0-0-0-0-0-----0-0-0-0-0-0--1--3--1-|
             . . . . . . .     . . . . . .     . . . . . .
 
 Verse
e|----------------------------------------|------------|
B|----------------------------------------|------------|
G|----------------------------------------|------------|
D|----------------------------------------|------------|
A|----------3-----------5-----------7/8/7-|-5--5--3--3-|
E|-0-0-0-0--1--0-0-0-0--3--0-0-0-0--5/6/5-|-3--3--1--1-|
   . . . .     . . . .     . . . . 

 Post-Verse
e|-------------------------------------------------------|
B|-------------------------------------------------------|
G|-------------------------------------------------------|
D|--------------------------4/5/4-------------------5--4-|
A|--------------5-----------2/3/2----------------5--3--2-|
E|-2-2-2-2-2-2--3--2-2-2-2----------2-2-2-2-2-2--3-------|
   . . . . . .     . . . .          . . . . . . 

e|---|------------------------------------------------|
B|---|------------------------------------------------|
G|---|------------------------------------------------|
D|---|-7-----------9-----------9----------------------|
A|-2-|-5--0-0-0-0--7--0-0-0-0--7--8-8-8-8-8-8-8-8-8-8-|
E|-0-|------------------------------------------------|
          . . . .     . . . .     . . . . . . . . . . 


 Gtr I
e|------------------------------------------------------------------------------------------------|
B|------------------------------------------------------------------------------------------------|
G|-----------------------7h8---------7h8----------------------------------------------------------|
D|-7---------7h8---------------------------------7---------7h8------------------------------------|
A|----0-0-0-------0-0-0-------0-0-0-------0-0-0-----0-0-0-------0-0-0--7h8--0-0-0--7h8--0-0-0-----|
E|------------------------------------------------------------------------------------------------|
      . . .       . . .       . . .       . . .     . . .       . . .       . . .       . . .
Gtr II
e|------------------------------------------------------------------------------------------------|
B|------------------------------------------------------------------------------------------------|
G|------------------------------------------------------------------------------------------------|
D|-2--2--2--2--2--2--2--2--7--7--7--7--7--7--7--7--2--2--2--2--2--2--2--2-------------------------|
A|-0--0--0--0--0--0--0--0--5--5--5--5--5--5--5--5--0--0--0--0--0--0--0--0--2--2--2--2--2--2--2--2-|
E|-------------------------------------------------------------------------0--0--0--0--0--0--0--0-|
   .  .  .  .  .  .  .  .  .  .  .  .  .  .  .  .  .  .  .  .  .  .  .  .  .  .  .  .  .  .  .  . 


Gtr I
e|-----------------------------------------------------------------------------------------------|
B|-----------------------------------------------------------------------------------------------|
G|-------------------------------------7h8-------------------------------------------7h8---------|
D|-7h8---------6h7---------7h8---------------------7h8---------6h7---------6h7--7h8-------7h8----|
A|------0-0-0-------0-0-0-------0-0-0-------0-0-0-------0-0-0-------0-0-0------------------------|
E|-----------------------------------------------------------------------------------------------|
        . . .       . . .       . . .       . . .       . . .       . . .    
Gtr II
e|------------------------------------------------------------------------------------------------|
B|------------------------------------------------------------------------------------------------|
G|------------------------------------------------------------------------------------------------|
D|-2--2--2--2--2--2--2--2--2--2--2--2--2--2--2--2--2--2--2--2--2--2--2--2--2--2--2--2--2--2--2--2-|
A|-0--0--0--0--0--0--0--0--0--0--0--0--0--0--0--0--0--0--0--0--0--0--0--0--0--0--0--0--0--0--0--0-|
E|------------------------------------------------------------------------------------------------|
   .  .  .  .  .  .  .  .  .  .  .  .  .  .  .  .  .  .  .  .  .  .  .  .  .  .  .  .  .  .  .  .  


 Gtr I
e|--0-0-0-0-0-0-0-0-0-0-0-0--3--0-0-0-0--2--0-0-0-0--3--0-0-0-0--|
B|---------------------------------------------------------------|
G|---------------------------------------------------------------|
D|---------------------------------------------------------------|
A|---------------------------------------------------------------|
E|---------------------------------------------------------------|
 Gtr  II
e|---------------------------------------------------------------|
B|---------------------------------------------------------------|
G|---------------------------------------------------------------|
D|-9---9---9---9---9---9---9---9---9---9---9---9---9---9---9---9-|
A|-7---7---7---7---7---7---7---7---7---7---7---7---7---7---7---7-|
E|---------------------------------------------------------------|
   .   .   .   .   .   .   .   .   .   .   .   .   .   .   .   . 


 Gtr II
e|---------------------------------------------------------------|
B|--0-0-0-0-0-0-0-0-0-0-0-0--3--0-0-0-0--2--0-0-0-0--3--0-0-0-0--|
G|---------------------------------------------------------------|
D|---------------------------------------------------------------|
A|---------------------------------------------------------------|
E|---------------------------------------------------------------|
 Gtr II
e|---------------------------------------------------------------|
B|---------------------------------------------------------------|
G|---------------------------------------------------------------|
D|-4---4---4---4---4---4---4---4---4---4---4---4---4---4---4---4-|
A|-2---2---2---2---2---2---2---2---2---2---2---2---2---2---2---2-|
E|---------------------------------------------------------------|
   .   .   .   .   .   .   .   .   .   .   .   .   .   .   .   .


Gtr I
e|-------------------------------------------------------------------------|
B|--3-3-3-3-3-3-3-3-3-3-3-3--6--3-3-3-3--5--3-3-3-3--6--3-3-3-3----0--0--0-|
G|-------------------------------------------------------------------------|
D|-------------------------------------------------------------------------|
A|-------------------------------------------------------------------------|
E|-------------------------------------------------------------------------|
 Gtr 2
e|-------------------------------------------------------------------------|
B|-------------------------------------------------------------------------|
G|-------------------------------------------------------------------------|
D|-7---7---7---7---7---7---7---7---7---7---7---7---7---7---7---7---4--4--4-|
A|-5---5---5---5---5---5---5---5---5---5---5---5---5---5---5---5---2--2--2-|
E|-------------------------------------------------------------------------|
   .   .   .   .   .   .   .   .   .   .   .   .   .   .   .   .  


e|-------------------------------------------------------------------------------------------------|-------|
B|-------------------------------------------------------------------------------------------------|-------|
G|-------------------------------------------------------------------------------------------------|-------|
D|-9-9-9-9-9-9-9-9-9-9-9-9-9-9-9-4-4-4-4-4-4-4-4-4-4-4-4-4-4-4-7-7-7-7-7-7-7-7-7-7-7-7-7-7-7-4-4-4-|-------|
A|-7-7-7-7-7-7-7-7-7-7-7-7-7-7-7-2-2-2-2-2-2-2-2-2-2-2-2-2-2-2-5-5-5-5-5-5-5-5-5-5-5-5-5-5-5-2-2-2-|-5-4-2-|
E|-------------------------------------------------------------------------------------------------|-3-2-0-|
   . . . . . . . . . . . . . . . . . . . . . . . . . . . . . . . . . . . . . . . . . . . . .



************************************
| .   palm mute
| /   slide up
| \   slide down
| h   hammer-on
| p   pull-off
| ~   vibrato
| +   harmonic
| x   Mute note
| b   Bend
| pb  Pre-bend
| br  Bend release
| pbr Pre-bend release
| brb Bend release bend

************************************
Добавлено: 23.04.2016
Другие материалы по этой песне:
  • Аккорды и текст

Страница создана 14.09.2014
http://primanota.ru/merciless/bestial-death-chords.htm
Привет, Гость.
Предлагаем пройти революционный курс по гитаре.
Подарок от PrimaNota.Ru, забирай!