PrimaNota.ru - самый крупный в мире бесплатный архив песенных текстов, аккордов, табулатур и нот


Merciless Death - Realm Of Terror - таба, видео

Регистрация Запомнить меня
Войти через:  Facebook Google Twitter Vk Yandex Mail.ru

Merciless Death - Realm Of Terror - таба, видео

Печатать
Просмотров: 45
Artist: Merciless Death
Song: Realm Of Terror
Album: Realm Of Terror
Song: 2008
Tabbed by: antichris666

Tuning: E standard

 Intro
e|------------------------------------------------|
B|------------------------------------------------|
G|------------------------------------------------|
D|-12-12-12--10-10-10--9----12-12-12--10-10-10--9-|
A|-10-10-10--8--8--8---7----10-10-10--8--8--8---7-|
E|------------------------------------------------|


 Riff A (Repeat 4 times)
e|------------------------------------------------------|
B|------------------------------------------------------|
G|------------------------------------------------------|
D|-10\9-----------------------------------------8-7-----|
A|--8\7---------------------------------------------8-7-|
E|------0-0-0-0-0-0-0-0-0-0-0-0-0-0-0-0-0-0-0-0---------|

e|------------------------------------------------|
B|------------------------------------------------|
G|------------------------------------------------|
D|-9-----------------------------------------5--7-|
A|-7-----------------------------------------3--5-|
E|---0-0-0-0-0-0-0-0-0-0-0-0-0-0-0-0-0-0-0-0------|


 Riff B
e|--------------------------------------------------------------------------------|
B|--------------------------------------------------------------------------------|
G|--------------------------------------------------------------------------------|
D|-9-------------------------9-9-9--10--7--9-------------------------9-9-9--10--7-|
A|-7-------------------------7-7-7--8---5--7-------------------------7-7-7--8---5-|
E|---0-0-0-0-0-0-0-0-0-0-0-0-----------------0-0-0-0-0-0-0-0-0-0-0-0--------------|

e|--------------------------------------------------------------------------------|
B|--------------------------------------------------------------------------------|
G|--------------------------------------------------------------------------------|
D|-9-------------------------9-9-9--10--7--9-------------------------9-9-9--10--7-|
A|-7-------------------------7-7-7--8---5--7-------------------------7-7-7--8---5-|
E|---0-0-0-0-0-0-0-0-0-0-0-0-----------------0-0-0-0-0-0-0-0-0-0-0-0--------------|


 Riff C (Repeat 2 times)
e|--------------------------------------------------------------------|
B|--------------------------------------------------------------------|
G|--------------------------------------------------------------------|
D|--------------------------9--8---------------------------------8--9-|
A|-8-8-8-8-8-8-8-8-8-8-8-8--7--6--9--8-8-8-8-8-8-8-8-8-8-8-8--9--6--7-|
E|-6-6-6-6-6-6-6-6-6-6-6-6--------7--6-6-6-6-6-6-6-6-6-6-6-6--7-------|


 Riff D
e|----------------------------------------------------------------------|
B|----------------------------------------------------------------------|
G|----------------------------------------------------------------------|
D|---------------------------5--4--4----------------------------5--4--4-|
A|-2-2-2-2-2-2-2-2--3-3-3-3--3--2--2--2-2-2-2-2-2-2-2--3-3-3-3--3--2--2-|
E|-0-0-0-0-0-0-0-0--1-1-1-1-----------0-0-0-0-0-0-0-0--1-1-1-1----------|

e|-------------------------------------------------------------------------|
B|-------------------------------------------------------------------------|
G|-------------------------------------------------------------------------|
D|---------------------------5--4--4----------------------------5--4--4--2-|
A|-2-2-2-2-2-2-2-2--3-3-3-3--3--2--2--2-2-2-2-2-2-2-2--3-3-3-3--3--2--2--2-|
E|-0-0-0-0-0-0-0-0--1-1-1-1-----------0-0-0-0-0-0-0-0--1-1-1-1-----------0-|


 Rhythm Solo (Repeat 7 times)
e|-------------------------------------------------|
B|-------------------------------------------------|
G|-------------------------------------------------|
D|-------------------------------------------------|
A|-------------------------------------------------|
E|-7-7-7-7-7-7-7-7-7-7-7-7-8-8-8-8-8-8-6-6-6-6-6-6-|


 Outro
e|-----------------------|
B|-----------------------|
G|-----------------------|
D|-12-12-12--10-10-10--2-|
A|-10-10-10--8--8--8---2-|
E|---------------------0-|



************************************

| /   slide up
| \   slide down
| h   hammer-on
| p   pull-off
| ~   vibrato
| +   harmonic
| x   Mute note
| b   Bend
| pb  Pre-bend
| br  Bend release
| pbr Pre-bend release
| brb Bend release bend

************************************
Добавлено: 03.05.2016
Вам также может быть интересно:
Другие материалы по этой песне:
  • Аккорды и текст

Страница создана 03.05.2016
http://primanota.ru/merciless-death/realm-of-terror-chords.htm
Привет, Гость.
Предлагаем пройти революционный курс по гитаре.
Подарок от PrimaNota.Ru, забирай!